I Surrender

By Aaron

This is the tab for the verse in I Surrender from the DVD, this line isn't on the CD version.



Rhythm:

Guitar:
Neck Pickup - Tone rolled completely back

Effects:
No Effects, there's a little natural overdrive from the amp

Verse:

          Dm                                                                                    F
e-------------------------------------------------------------------------------------------------------------------|
B-----=------------------------------------------------------------------------------------------------------------|
G-------6--6--------6--6--------6--6----5-------------------6--6--------6--6-------6--6------5----------------|
D---------------------------------------------7------5-------------------------------------------------7------5---|
A--7-----7------7----7------7----7-----------------------7----7------7----7------7---7-------------------------|
E-------------------------------------------------------------------------------------------------------------------|

        C                                                                                    Bb
e-------------------------------------------------------------------------------------------------------------------|
B------------------------------------------------------------------------------------------------------------------|
G-----6--6---------6--6---------6--6-----5-----------------6--6---------6--6---------6--6-----5--------------|
D---------------------------------------------7-----5---------------------------------------------------7-----5--|
A-5---5-----5------5-------5----5----------------------8----8------8-----8------8-----8-----------------------|
E------------------------------------------------------------------------------------------------------------------|


Chorus:

          Dm                                                                                  F
e--------------------------------------------------------------------------------------------------------------------|
B-------------------------------------------------------------------------------------------------------------------|
G--------6--6-----------6--6--------6--6------5-------------------5--5--------5--5-------5--5------------------|
D---------------------------------------------------7------5-------------------------------------------7------5----|
A-7-------7---------7----7------7----7-------------------------5----5------5----5------5---5------------------7-|
E--------------------------------------------------------------------------------------------------------------------|
            
          Gm                                                                                  Bb
e---------------------------------------------------------------------------------------------------------------------|
B---------------------------------------------------------------------------------------------------------------------|
G----------6--6---------6--6---------6--6-----5----------------6--6-----------6--6---------6--6-----5-----------|
D--------------------------------------------------7-----5-------------------------------------------------7-----5--|
A----8-----8-----8------8-----8------8---------------------8----8--------8-----8------8-----8--------------------|
E---------------------------------------------------------------------------------------------------------------------|


Lead:

Guitar:
Neck, Tone between 1/2 and full

Effect:
Overdrive
Delay
Wet Reverb (See video)

Chorus:

            Dm            Fmaj7              Gm                  Bb
e-------10-----------12-----------------13---------------15-----|
B------------------------------------------------------------------|
G-----------------------------------------------------------------|
D-----------------------------------------------------------------|
A-----------------------------------------------------------------|
E-----------------------------------------------------------------|

Bridge

            Bb          F            C                        Gm7        Dm        C
e--------18-------17-------15--------------------18-------17-------15----------13------12---|
B-------------------------------------------------------------------------------------------------|
G------------------------------------------------------------------------------------------------|
D------------------------------------------------------------------------------------------------|
A------------------------------------------------------------------------------------------------|
E------------------------------------------------------------------------------------------------|

9 comments:

Elias Motta said...

very good man!

samuel joy said...

can anyone tell me whats the NECK and also the numbers thet appear in the video ( I, II, III, IV)

Aaron said...

Ok, so "Neck" refers to the pickup selected on the guitar. Neck being neck only, bridge meaning bridge and middle meaning both pickups are selected. The Roman numerals are the chords for the song. The numeral is referred to as the Nashville Numbering System (NNS http://en.m.wikipedia.org/wiki/Nashville_number_system )

This song is in the key of F, so I means F is the chord paying, II=Gm, III= Am, IV= VB, V=C VI= Dm and so on. Is anything still unclear?

Aaron said...

IV=Bb, sorry Auto correct :P

Jawed Ali said...

Funny Epic Girls, Troll Images of Girls, Girls Funny and Loll, Funny Hot Pictures of Girls
hotentertainnews.blogspot.com

Taylor Triggs said...

Awesome! I think the tab is incorrect though, the notes appear to be on the A D and G strings but its actually on the D G and B strings.

cecillia said...

Thank's have shared the info,, success always for the info and specifications and price the website,,, and be the best to the next information,,

Cindy Dy said...


I am very happy to locate your website. I just wanted to thank you for the time you spent on this great article. I definitely enjoyed reading it and I have you bookmarked to check out new stuff you post.


Kris
www.gofastek.com

Unknown said...

Ty