Rise

By Kenny

 Again, as played by Hillsong.


Lead



Intro & Verse - fiddle with your volume pedal to get the volume swells
-12---8----3-----
-----------------
-----------------
-----------------
-----------------
-----------------



Pre-chorus
-----------------
-------8p5-------
-5-7p5------7p5--
-----------------
-----------------

-----------------


Chorus

-8-10-10--10-8-8--8---
-8-8--8---8--8-10-8---
---------------------- (x3)
----------------------
----------------------

----------------------


-8-10-10--10-8-10s12-12-
-8-8--8---8--8----------
------------------------
------------------------
------------------------
------------------------


Rhythm



Intro/Verse/Instrumental
-------------------------------------
-------------------------------------
------9-----9---------14-------10-9--
---10----10--------14-------10-------
----------------12--------8----------

-8-----------------------------------


Pre-chorus
Strum the barre chords C, C, Am, F


Chorus
Strum
---------------------------------
-13--12--13--13---13-15-13-13----
-12--12--12--10---12-12-12-10----
---------------------------------
---------------------------------

---------------------------------


Bridge
Strum the power chords:
C G C/E (see below) F
Am G C/E* (see below) F

---------------------------------
---------------------------------
------9---------------------------
-10---10-----------------------------
-10---7-----------------------------
-12--------------------------------
C/E  C/E*

4 comments:

George said...

Hey bro thankyou, are you have some idea about the effect?? (im from latinoamerica sorry for my english)

Aaron said...

Hey George, you're english is better than mine :P, no need to apologise :)

In terms of effects for lead you get the similar sound by using a simple overdrive or lighter distortion, with a small amount of dotted eighth delay mixed in. Enough delay to give it a little feedback, but not enough to overpower the playing. To get closer to the sound use your bridge pickup, or if you happen to have a gretsch, use that :)

Good luck and God bless.

Assassinx1222 said...

Hey man, just wondering. But did you make these tabs or get them from somewhere? Because to me on the pre chorus the first time through it doesnt sound like theres enough notes or something.

cecillia said...

actual information, all information yamaha yzf r which is helpful given once for all saloon car | honda cbr