Awakening

By Aaron


Unfortunately the recording quality isn't great - you can't hear the reverb and the delay is a little washed out but the settings are as follows:

Lead:
Neck pickup
Clean Boost
Delay settings:
E level - Full
Feedback Level - 1/4 to 1/3
Tone - Full.
Reverb

Second:
Bridge pickup
Overdrive (Jekyll and Hyde, Drive at 1/2)
Delay - Same delay as Lead
Reverb.

For reverb for the second guitar it needs to be strong enough that it almost drowns out the strokes on the strings. Can't hear it too well on the recording.




Lead: Verse: E B A E 
e---------------------------------------| 
B---------------------------------------| 
G---------------------------------------| 
D---2-2-2-----4-4-4----2-2-2------2-2-2-| 
A-----------2--------0------------------| 
E-0-----------------------------0-------| 




Chorus: A C#m E B 

e---------------------------------------| 
B---------------------------------------| 
G---------------------------------------| 
D---2-2-2-----2-2-2----2-2-2------4-4-4-| 
A-0---------4------------------2--------| 
E-------------------0-------------------|





Bridge: A F#m7 C#m E F#m7 A B B 

e---------------------------------------| 
B---------------------------------------| 
G---------------------------------------| 
D---2-2-2-----2-2-2----2-2-2------2-2-2-| 
A-0---------4--------4------------------| 
E-------------------------------0-------|



e-----------------------------| 
B-----------------------------| 
G-----------------------------| 
D---2-2-2-----2-2-2-----4-4-4-| 
A-4---------0--------2--------| 
E-----------------------------|


Second:
Pretty much repeats. For the first part of the bridge
e---12-12-12--|





Instrumental/Bridge 2 
Play each note several times and slide to change notes

e---------------------------------------| 
B---------------------------------------| 
G-6--8--9--11--13--4--11----------------| 
D---------------------------------------| 
A-4--6--7--9---11--2--9-----------------| 
E---------------------------------------| 








2 comments:

Branjawn said...

I don't think you should be picking each note. My thought on this song is that delay should be the second iteration of each note. So you really only pick twice to get the 4 notes. Of course, 2 and 3 would overlap, but it sounds nice and full. Just my two pennies :)

cecillia said...

all of which have been presented by this website yamaha yzf r was perfect, good appearance and artikelnya..penuh color and full of meaning .. kawasaki ninja | specifications and price