Unending Love

By Kenny

Here's Unending Love by Hillsong. I'm out of the country right now, for a few months in fact, so I'm currently recording with a cheap squire and an amplug that I'm practising with. Worst thing is that I can't hear myself when I record! (and thus the verse was too distorted...). In any case, the parts that I caught from this song are  pretty easy, so it shouldn't be too difficult to follow.



Verse - repeat each segment several times
--------------|--------------
-3-------7----|--------------
-----4--------|--6--7--4-----
--------------|--------------
-2-------5----|--------------
-----3--------|--5--7--3-----



Chorus
---------------------------------
-7-(x3 bars)---5-(x1 bar)--------
-7-------------6-----------------
---------------------------------
---------------------------------
---------------------------------



---------------------------------
-7-(x3 bars)---8-(x1 bar)--------
-7-------------7-----------------
---------------------------------
---------------------------------
---------------------------------


2 comments:

SkyBass said...

what if you don't have a six stringed bass?

cecillia said...

all of which have been presented by this website was perfect, good appearance and artikelnya..penuh color and full of meaning .. tips on buying a vehicle | price yamaha yzf r | luxury bathroom | toyota new car price