Light WIll Shine


By JP





Lead Guitar:

Intro:
e---------------
B--10--7--9-----
G------------6-- (each note is played a number of times)
D---------------
A---------------
E---------------

Verse:
e------------
B--10--7-----
G---------7-- (each note is played a number of times)
D------------
A------------
E------------

Pre-Chorus:
Bm7 F#m D

Chorus:

e--12-9----9-12-9-12-9----9-12-9--
B-------12-------------12---------
G--------------------------------- x repeat as needed.
D---------------------------------
A---------------------------------
E---------------------------------

Bridge:
e--12---14---10--
B----------------
G--9----11---7--- (each octave is played a number of times)
D----------------
A----------------
E----------------

Rhythm Guitar.

Verse:
e--------------------------------------------------
B--------------------------------------------------
G-----------------------7-7-7-7-xx-7-7-xxxxxxxx--
D--7-7-7-7--4-xxxxxxxx--7-7-7-7-xx-7-7-xxxxxxxx--
A--7-7-7-7--4-xxxxxxxx--5-5-5-5-xx-5-5-xxxxxxxx--
E--5-5-5-5--2-xxxxxxxx---------------------------
(ever second 'x' is an upstroke mute note)


Pre Chorus:
e----------------------------------------------
B----------------------------------------------
G----------------------------------------------
D--6-6-7-7-6--6-6-7-7-6--6-6-7-7-6--6-6-7-7-6--
A--0-0-0-0-0--9-9-9-9-9--5-5-5-5-5--5-5-5-5-5--
E----------------------------------------------
(repeat x2)




Chorus:
A E F#m D

Bridge:
e--------------
B--------------
G--9---11---7-- (each octave is played a number of times)
D--------------
A--7---9----5--
E--------------

End on D.

6 comments:

fretfudger said...

Great job JP! Love that Duesy of yours as well. Do you use the humbuckers for this?

Sigve said...

Awsome, i love your tabs... Nice that you do both Rythm and Lead

e-rock7 said...

What do you use to record your guitar? Processor? Amp with a mic?

Micah said...

Your holding my dream guitar...take care of it.

Benjamin Paine said...

Hope This Fits!

Intro/Instrumental:
E|--------------------------4---------------------------------|
B|--5-----------5---------------------------------------------|
G|----6-4-6-4-6---6-4-6-4-6---6-4-6---------------------------|
D|------------------------------------------------------------|
A|------------------------------------------------------------|
E|------------------------------------------------------------|

Chorus:
E|------------------------------------------------------------|
B|--10----9-----10----7---------------------------------------|
G|--9-----9-----9-----7---------------------------------------|
D|--7-----7-----7-----7---------------------------------------|
A|------------------------------------------------------------|
E|------------------------------------------------------------|

cecillia said...

thank you, this website has provided very useful knowledge for me and Toyota Will Use Technology Leading Mazda? | Price And Specifications Honda CBR1000RR SP 2015 | Let Roving Interior Minimalist House Luxury One It | Latest Price and Specifications Kawasaki Ninja H2 and H2R in 2015