A Beautiful Exchange

This video ended up turning into a jamming session. I had intended to only record each part of the song (intro, verse, chorus, etc..) once, instead I ended up playing the entire
song and had to cut alot in the post editing, but it's still pretty long.

The intro is just a bit of melodic picking within the chords with a simple delay as well as
a few bends where it breaks away to the next part. You want to try and keep everything
on the lower register of the guitars frequencies so to not be over powering so I used the rhythm pickup.




INTRO/Verse
e------------------------------------------------------------------------------------|
B---7----7--7---7---8---8---8--8----------------------8--8---10--10---10--8--8-7---7-|
G-7---7---7--7---7----7--7---7----7--7--7--9--9--9--9---9---9---9----9---9------9----|
D-----------------------------------9--9--9--9--9------------------------------------|


Build Up and Chorus
This is the signature line from the song. it just goes back and forth between these two lines

e--------------|---------------|
B--------------|---------------|
G--2-2-2\6-----|---2-2-2\7-----|
D--------------|---------------|

The rest is just improv parts that I threw in while I was playing (as I said, I got "into" the music). If you want particulars on what I was playing I could probably (with ALOT of effort) type something up for you, just message me on my youtube.

6 comments:

jr3289 said...

cool, what delay settings did you use?

Mattio said...

it's a dotted eigth note.

jeff said...

The intro piano tab for guitar is

e|--10-9-5-7-----------------|
B|-----------7---------------|
G|---------------------------|
D|---------------------------|
A|---------------------------|
E|---------------------------|

God Bless!

Freedomway said...

Thankyou for tab [url]http://musicinstrumentbest.com[/url]

Jesusluva said...

Could you possibly type that improv?? lol

cecillia said...

Nice info given, may be a blessing and benefit us all Toyota Will Use Technology Leading Mazda? | Price And Specifications Honda CBR1000RR SP 2015 | Let Roving Interior Minimalist House Luxury One It | Latest Price and Specifications Kawasaki Ninja H2 and H2R in 2015