You Are Good


Here's You Are Good by Bethel Live.

By Jacob



Intro –
A, D
e|---------------12(x3)-14(x3)-------------12(x3)-------|
B|-14(x8)-12(x3)---------------------------------14(x2)-|
G|------------------------------------------------------|
D|----------------------------11(x7)-14(x3)-------------|
A|------------------------------------------------------|
E|------------------------------------------------------|


Verse –

A, D, F#m, A/G#m, A, E


Chorus –

A, D
e|--------------12(x3)-14(x3)------------12(x3)-------|
B|14(x24)-12(x3)--------------------------------14(x2)|
G|----------------------------------------------------|
D|--------------------------11(x23)-14(x3)------------|
A|----------------------------------------------------|
E|----------------------------------------------------|


Bridge –

Bm, D, A x2
Bm, D, A, E x2

7 comments:

fretfudger said...

Sounds great - good job. I wouldn't shoot videos with backlighting like that though. Its almost impossible is see what you are playing.

lawless33 said...

Sounds great! What type of amp/multi-effects are you using? Also, would you mind posting your delay settings such as type of delay (analog, digital, etc.) and dotted 8th, etc.? Thanks!

Wes

Jake said...

@fretfudger thanks man, definitely gonna rethink the visual side of things next time!

@lawless33 Set-up was a Gibby LP Studio into a Hughes and Kettner Tubemeiser 18, I used the amps lead channel the whole time then kicked in the lead boost for the lead parts. Delays was just a standard .8th from my DD5, E.level at 12, and F.back at 11ish if I remember correctly!

lawless33 said...

Am I correct that the intro is all played on the high e, b and G strings (and not the e, b and d as listed in your tab)?
Wes

Jake said...

Haha yes! Sorry everyone my mistake!

BenGraham said...

could you get one thing remains up?

cecillia said...

Thank's have shared the info,, success always for the info and the technology enggine honda cbr | the price of motorcycles and cars | children's bedrooms | tips on buying a vehicle website,,, and be the best to the next information,,