With Us

By JP




FB = Full Bend


Intro:

e-------------14-14-----------15-15-14-------14-14------------
B-----------------------------------------------------12------
Gs14-16-14-16------14--16-14-16-------16-14-16-----14-14fb(16)
D-------------------------------------------------------------
A-------------------------------------------------------------
E-------------------------------------------------------------

Verse:
Power Chords (no delay):

Bm G D A

Pre Chorus:

I used delay for this but I'm pretty sure a tremelo effect is used for this part:

e--------------------------------------------------------------
B---------10-10-10-8--------8-8-8-7-------7-7-7----------------
G-----7-7---------------------------7-7-7-------9------6-6-7-7-
D--9-9-------------------------------------------7-7-7---------
A-------------------10-10-10-----------------------------------
E--------------------------------------------------------------

Chords:
D G Bm G

Instrumental:

*** Below notes all played as sixteenths.

e--7---9-10---3---2---5---7---9-10---15---14---12---10--
B-------------------------------------------------------
G-------------------------------------------------------
D-------------------------------------------------------
A-------------------------------------------------------
E-------------------------------------------------------

Bridge:
e------7-----7-----7-----9--
B----7-----7-----7-----7----
G--7-----7-----7-----7------ (repeat)
D---------------------------
A---------------------------
E---------------------------

7 comments:

Adolescentes ICV - Caminho da Vida said...

Thank you!! GOD BLESS!!

G Clark said...

Another thing you can do for the instrumental is just follow the rhythm with power chords on the EAD string. It makes it a little bigger, especially if you don't have a r-hythm guitarist or whatever.

d-9~11-12-5-12-7-4-9-11-12-5-12-7-5
a-9~11-12-5-12-7-4-9-11-12-5-12-7-5
e-7~9--10-3-10-5-2-7-9--10-3-10-5-3

The changes are really easy to hear, and it's a great way to beef up the sound. :)

Kasperovich said...

Trying to identify the guitar... what is that thing???

TonyMac said...

Dusenberg

eddie27 said...

what type of delay pedal are u using for this song

antich1712 said...

This tab is very good. Thanks! Can you post me tabs for song "My heart is overwhelmed" from this album to my e-mail: antich171295@mail.ru? Thanks and God bless you!)))

cecillia said...

thank you, this website has provided very useful knowledge for me and others tips on buying a vehicle