Alive in Us

Here's Alive in Us by Hillsong.



Intro
--------------------------------------------
-8-8-8-10-s12s10-8-10-(x3)--8-8-8-7-7-5-5-3-
--------------------------------------------

--------------------------------------------
--------------------------------------------
--------------------------------------------

Verse
For the second part, strum
---------------------------
-12---followed-by---10-----
-12-----------------12-----

---------------------------
---------------------------
---------------------------

Pre chorus
------7---------------------
----8--------8-10-----------
--------7---------7---(x2)--

-10--------9----------------
----------------------------
----------------------------

Chorus
-----------------
-12...---10..----
-12...---12..----
-----------------
-----------------
-----------------

Instrumental
---------------------------------------
-15----12-10-12----15-----19-----------
---------------------------------------

-12-----9--7--9----12-----16-----------
---------------------------------------
---------------------------------------

4 comments:

Sammy Evans said...

Thank you so much for sharing this guitar tab! I've been looking for this since yesterday. :) Do you think this is still applicable with Electric Guitar

lee woo said...

Do not take life too seriously. You will never get out of it alive. See the link below for more info.


#alive
www.ufgop.org

cecillia said...

Nice info given, may be a blessing and benefit us all the latest engine specification | the latest automotive news | children's bedrooms | motorsport kawasaki ninja

Silvia Jacinto said...

Reading your article is such a privilege. It does inspire me, I hope that you can share more positive thoughts. Visit my site too. The link is posted below.

n8fan.net

www.n8fan.net