Rise

By JP

I only tabbed out the first guitar (top screen in the video) as it is the main guitar in this song.



CAPO 5

IMPORTANT: 5 = Open String for Capo

Intro & Verse:

e-------------------8---------------
B-------5---------5-----------6-5---
G-----5---------------------5------- (repeat)
D--------------7--------------------
A-------------------------8---------
E---8-------------------------------

Pre Chorus:

e--------------------------------
B-------8p5------------8p5-------
G---5-7-----7p5--5-5-7-----7p5--- (repeat)
D--------------------------------
A--------------------------------
E--------------------------------

Chorus:

e---8-8-8--10-10-10-10--8-8--8---
B---8-8-8--8--8--8--8---8-10-8---
G--------------------------------
D--------------------------------
A--------------------------------
E--------------------------------


Chords:
C G Am F

5 comments:

TonyMac said...

Thanks. Cool effect with the split screen.
Nice song.
Tell me about your guitar: Dean, with Bigsby tremelo?

jeshma said...

@TonyMac

That's a Duesenburg Star Player TV. those things go for like $3k

Dan Leedham said...

Any more info on the effects you've used for the main guitar, say delay and your amp?

webmaster said...

Well that's really helpful blog for me, I really appreciate this blog, thanks for the sharing thisElectric Guitar

cecillia said...

motorsport kawasaki ninja | the latest engine specification | how to make home | price yamaha yzf r Nice info given, may be a blessing and benefit us all