The Lost Are Found

By JP




Intro:

e------11--14-11---------11--
B-12---------------12--------
G----11---------11----11-----
D----------------------------
A----------------------------
E----------------------------


e-14-11----------11-----11------11-----------------11--
B----------12--------14----14-11---12-11-9-11-11s12----
G-------11----11---------------------------------------
D------------------------------------------------------
A------------------------------------------------------
E------------------------------------------------------


Verse:

e---11--12--11--9----
B---12--12--12--11---
G--------------------
D-------------------- (repeat)
A--------------------
E--------------------

(repeat from (x))

Pre Chorus:

e---------------------------------------------
B---------------------------------------------
G---9----9-----8---8----11----11-----8---8----
D-----11---11----9---9-----13----13----8---8--
A---------------------------------------------
E---------------------------------------------
(continued below)


-------------------------------
-------------------------------
-------------------------------
--9----9-----8---8----9---9---- (repeat)
----11---11----9---9----9---9--
-------------------------------

Bridge:
B C#m G#m E

10 comments:

Scott Rogerson said...

Would u be able to tab those bridge chords as im not sure how to play them

Cheers

Jorge M said...
This comment has been removed by the author.
Jorge M said...

e---12-11----11-9-----12-11----11-9--
B---------12-------12---------12-------
this is the bridge

Rock4Life said...

e---12-11----11-9-----12-11---11-9--
B---------12----------------12------G------------------11--------------11
this is how the bridge goes...

good job though Jorge M

Brice said...

Yeah these dont look right,
Can someone tab out the chords for the bridge?

sarah lee said...

In this world, it is too common for people to search for someone to lose themselves in. But I am already lost. I will look for someone to find myself in. See the link below for more info.


#lost
www.mocsbar.com

forrestcodilla said...

Can’t wait to share this site to some of my friends you never fail to overwhelm us, always got explanation that we didn’t expect. This may be probably the reason why you got more visitors. Keep us inform like this one. Cheers

www.triciajoy.com

lee woo said...

Love it! Very interesting topics, I hope the incoming comments and suggestion are equally positive. Thank you for sharing this information that is actually helpful.


ufgop.org
ufgop.org

Cindy Dy said...

Thank you for sharing this chords. Looking forward for more.

Wendy
www.gofastek.com

cecillia said...

indeed a cool website like this must, always puts a lot of satisfaction and benefit its visitors. Toyota Will Use Technology Leading Mazda? | Price And Specifications Honda CBR1000RR SP 2015 | Let Roving Interior Minimalist House Luxury One It | Latest Price and Specifications Kawasaki Ninja H2 and H2R in 2015