Even Our Faith

By Volodymyr



There are 4 different keys in this song. But intro and solo are in D.

Intro: (not played by guitar, but if you want...)

e|17s19--17-14---------------------|
B|-------------15-17-15-17-15-17-19|
G|---------------------------------|
D|---------------------------------|

e|17s19--17-14-------------17---------|
B|-------------15-17-15-17----19-17-15|
G|------------------------------------|
D|------------------------------------|

Solo:

e|17-15-14-15-------------------|
B|------------15-15--14-15-12---|
G|----------------------------14|
D|------------------------------|
A|---—--------—-----—-----------|
E|------------------------------|

e|---17----------------------------------|
B|15----17-15-17-15-17-19-17--17-15-14---|
G|-------------------------------------14|
D|---------------------------------------|
A|---—--------—-----—--------------------|
E|---------------------------------------|

e|-----------------------------------------------------|
B|-----------------------------------------------------|
G|14b16-14b16-14b16-14-14-12-14-12---------------------|
D|--------------------------------14-12-11-12-11--11-12|
A|---—--------—----—-----------------------------12----|
E|-----------------------------------------------------|

e|----------------------------14-17--17-----17-17------|
B|--------------15--15s17-17-----------15-15------15-15|
G|---------14s16---------------------------------------|
D|------12---------------------------------------------|
A|12s14--—--------—----—-------------------------------|
E|-----------------------------------------------------|

e|17-17-----17-17-----------------------14-15-17-15-14-|
B|-----15-15-----15-15-15-15-15-19-17-17-------------17|
G|-----------------------------------------------------|
D|-----------------------------------------------------|
A|-------—--------—----—-------------------------------|
E|-----------------------------------------------------|

e|17------17-17----17-17------17-17-15-14--------------|
B|--15-15-----15-15------15-15-----------17-15-14------|
G|-----------------------------------------------16-14-|
D|-----------------------------------------------------|
A|-------—--------—----—-------------------------------|
E|-----------------------------------------------------|

e|14-15-17-14-15-17-14-15-17-19-17--17-|
B|--------------------------------15---|
G|-------------------------------------|
D|-------------------------------------|
A|-------—--------—----—---------------|
E|-------------------------------------|

e|22-22-21-17--19-17--17-15-14-15-14----------|
B|-----------17----------------------15-12-12-|
G|--------------------------------------------|
D|--------------------------------------------|
A|-------—--------—----—----------------------|
E|--------------------------------------------|

e|-----9-10-12-14-15-14-15-17-15-14--|
B|10s12----------------------------15|
G|-----------------------------------|
D|-----------------------------------|
A|-----------------------------------|
E|-----------------------------------|

3 comments:

joshsrai said...

can i make a suggestion?
is there any way to include the name of the band and the album along with the title on the top?
the thing is, i love the songs that are posted and would love to know more about'em but i dont know many of these songs, nor the band/ablum names.

thanx
joshsrai@yahoo.com

manthy said...

Nice blog - Follow me back please
http://ismanthyhere.blogspot.com/

cecillia said...

Price And Specifications Honda CBR1000RR SP 2015 all of which have been presented by this website was perfect, good appearance and artikelnya..penuh color and full of meaning ..