You Reign

By Matt

There are only 2 main parts to this song; the intro and the soft line in the verse.
as for the video. I also did something to the videos to make them more interesting to watch, hope it doesn't make it difficult to see what I'm playing. I also sacrificed some audio quality for video (my bad).



The song is in the key of C.



Intro

I usually let the delay take care of the repeats but you can pick it multiple times if you so desire

e---------12-------------12----------------12-h13-|
B---13-13------13-13-13-------13-13-13------------|
G-------------------------------------------------|


Verse

e------------|----------------|
B------------|----------------|
G---7----9---|----------4--5--|

as for the chorus, I just improv it with the C major scale
use these notes and have fun with it, make it your own.

e-------------------5-7-8-|
B----------5-6-8----------|
G--4-5-7------------------|

3 comments:

Kent Eric Narra said...
This comment has been removed by the author.
Kent Eric Narra said...

hi guitarpraise can you also do God is with me by citipointe . thank you cery much God bless

cecillia said...

Helpful once ya news,
thanks a lot ya pa admin has given this good news. minimalist bedroom design | tips on buying a vehicle | technology enggine honda cbr | the latest engine specification