Love Came Down

Here's Love Came Down by Ben Cantelon off the new Worship Central album.



Intro/Verse 1
Here I used the neck pickup of my Les Paul and the modulated delay setting on my Boss DD7 to do swells
Bb Eb
e---------------------------
B-----11----------11--------
G-----10----------8---------
D-----8-----------8---------
A---------------------------
E---------------------------


Post Verse Riff
Now I switched to a distorted tone with a heavy dotted eighth delay
Bb Eb
e--------------------
B---11----------13---
G------10------------
D---------12-13------
A--------------------
E--------------------

Bb Eb Bb
e-----------------------10--
B---11----------13----------
G------10-------------------
D---------12-13-------------
A---------------------------
E---------------------------


Verse 2
Now I changed to the bridge pickup and picked through the two inversions
Bb Eb
e---------------------------
B-----11----------11--------
G-----10----------8---------
D-----8-----------8---------
A---------------------------
E---------------------------



Pre-Chorus
Again I just picked through the chord except for the final Eb
Cm7 Bb/D Eb
e---------------------------
B-----4-------------6-------
G------3-------------8------
D----5-------------8--------
A---3-------5-----6---------
E---------------------------

Chorus
Bb Eb Gm Eb Eb/D
e-------------------------------------
B-----11------11------11------6---6---
G-----10------8-------12------8---7---
D-----8-------8-------12------8---8---
A---------------------10------6---6---
E-------------------------------------

Bridge
The first two times are build ups, then the song drops back completely
F Gm Eb Bb
e-----3-------6-------------------
B-----6-------8-------6-----------
G-----5-------7-------8-------7---
D-----3-------5-------8-------8---
A---------------------6-------8---
E-----------------------------6---


I made up this riff to play in the short instrumental before the final chorus

F Gm
e------------------------------------------------------
B------------------------------------------------------
G---10------15------14--------12-------15------14------
D------------------------------------------------------
A---8—(X8)--13-(X4)-12-(X4)---10-(X8)--13-(X4)-12-(X4)-
E------------------------------------------------------

Eb Gm
e-------------------------------------------------------
B-------------------------------------------------------
G-----8-------15------14--------15-------17------17b19--
D-------------------------------------------------------
A-----6—(X8)--13-(X4)-12-(X4)---13-(X8)--15-(X4)--------
E-------------------------------------------------------

Final Chorus
Bb Eb
e--------------------------------------
B-------11----11--11------11---11-11---
G-----10----10--10-------8----8--8-----
D--------------------------------------
A--------------------------------------
E--------------------------------------

Gm Eb
e-------10-----10----------------------
B-----11--11-----11------11------11----
G-----------12-----12----8-------7-----
D------------------------8-(X8)--8-(X8)---
A-----------------------------------------
E-----------------------------------------

5 comments:

Mattio said...

there ya go dude. great job!

Lester Abrao said...

It's truly a love came down from heaven! The song is great, very inspirational. Good thing you also post the guitar key for this wonderful song. Watching your video seems like studying electric guitar lessons.

MelloDrachmatic said...

Nice Job :D

I think this is originally from the Soul Survivor Live 2006 album - the Worship Central Lifting High album is mostly a compilation with 4 new recordings.

Jake said...

Yes the song's been around for a while, however it's probably my favorite off of the new album! As you said the majority of the songs on the new Worship Central album are covers, but I think it's still a great CD. I'm glad you liked the cover! If anyone has any song requests I'll get on with some more soon...

cecillia said...

Thank's have shared the info,, success always for the info and the website,,, and be the best to the next information,, toyota new car price | tips on buying a vehicle | luxury bathroom | the price of motorcycles and cars