Best Days

By Kenny

Its been awhile since I last posted! Here's the verse and chorus of Best Days by Lincoln Brewster, I can't quite play the instrumental yet, as with most Brewster songs...



Intro
-------------------------------------------------
-------------------------------------------------
-s11-11-9-7-6-7-2-2-0----s11-11-9-7-6-7-11-12-11-
--0--0--0-0-0-0-0-0-0-4---0--0--0-0-0-0-0--0--0--
-------------------------------------------------
-------------------------------------------------


Verse

D G Em G

Quick fill
-------------------------
-------------------------
-2h4p2-------------2-----
-------5p4h5p0-5p0-------
-------------------------
-------------------------

This is similar to Today is the Day
-------------------------------------
-7-5-7-5-7-------8-7-8-7-8-----------
-7-6-7-6-7-(x4)--7-7-7-7-7-(x2)------
-------------------------------------
-------------------------------------
-------------------------------------

Prechorus
-----------------------------------
-------3----------3----------3-----
-----2---2------2---2------0---0---
---0----------0----------2--------- A
-----------------------------------
-2----------3----------0-----------


Chorus
D G Em A
D G Em A

2 comments:

Matthew said...

THANK!!!
can you do more of lincoln's real Life album? thanks again. god bless

cecillia said...

Helpful once ya news,
thanks a lot ya pa admin has given this good news. the latest automotive news | motorsport kawasaki ninja | technology enggine honda cbr | minimalist bedroom design