God is Able

By Matt

The intro is just a simple riff with a dotted eigth note delay as well as a decent feedback in the beginning. I just let the delay make the repeats of the notes until it starts to build.




Intro
e-9-p7--9-p7--9-p7---12-11--9-p7--9-p7---7----
B------------------------------------------7-9

Chorus
B, F#, G#m, E

Solo
e-----------------------------------
B-7-7-7-7-7-------------------------
G------------9-8-6-6-6-6-6-6--------
D-----------------------------8-8-9-

e
---------------------------------
B
--7-7-7-7-7-7-7------------------
G-----------------8-8-8-6-6-9-9-9-
D
---------------------------------


Bridge
B, F#, G#m, E

4 comments:

ricardo said...

how to set like dotted eigth note delay in G1x pedal?

RyLeY In A BLeNdeR said...

in the intro instead of
e--12-11--9-p7--9-p7---7------
B----------------------------7-9
ITS:
e--12-11--9-p7--9-p7---7------
B----------------------------9-12

Mattio said...

ya. I realized that after I filmed the video. but didn't really feel like going back to change it cause it doesn't sound bad, just different. lol. thanks though

sampar basuki said...

Helpful once ya news,
thanks a lot ya pa admin has given this good news. tips on buying a vehicle | the latest engine specification | how to make home | the price of motorcycles and cars