This Love

Here's This Love by the Planetshakers

By Jackson



Dropped D tuning

Intro
---------------------------------------
---------------------------------------
---------------------------------------
---------------------------------------
---3-3h5---3-3h5---3-3h5-------5-5p3---
-0-------0-------3---------3-5---------

---------------------------------------
---------------------------------------
---------------------------------------
-----------------3---------------------
---3-3h5----3-3---5---3-3h5-------5-5p3
-0--------0---------3---------3-5------

There are some variations to this line but you should be able to figure it out without the tabs

Verse

---------------------------------------
---------------------------------------
---------------------------------------
---------------------------------------
-----3-3h5---3-3h5-----3-3h5-----5-5p3-
-0-0-------0-------3-3-------3-5-------

Verse Chords

D F G


Pre-Chorus

Palm Muting
---------------------------------------
---------------------------------------
---------------------------------------
-0----2--3----5----8----10-------------
-0-x3-2--3-x4-5-x4-8-x2-10-x2----------
-0----2--3----5----8----10-------------

---------------------------------------
---------------------------------------
---------------------------------------
-0----2--3----5----12----10------------
-0-x3-2--3-x4-5-x4-12-x2-10-x2---------
-0----2--3----5----12----10------------


Chorus

Lift your fingers each time to get that

jumping rhythm that is used
----------------
----------------
-7--10--5-------
-7--10--5--5---- x3
-5--8---3--2----
----------------

----------
----------
-3--5--7--
-3--5--7--
-1--3--5--
----------

Solo

First Section (repeat once)

-------------------------------
--10--10------10--10-----------
--10--10------10--10-----------
---------12----------12--------
-------------------------------
-------------------------------

--------------------------------------
--11-10----10-11-10-------------------
--------12----------12-10----10-12-10-
--------------------------12----------
--------------------------------------
--------------------------------------

-------------------------------
-----------------10------------
-----------------10------------
--12-10----10-12---------------
--------12---------------------
-------------------------------

Second Section


--10-13-10----------10-13-10----------
-----------13-10-13----------13-10-13-
--------------------------------------
--------------------------------------
--------------------------------------
--------------------------------------

--10-13-10----------------------------
-----------13-10-13-10-13-10----------
-----------------------------13-10----
-------------------------------------- x 2
--------------------------------------
--------------------------------------

---------------
--13b14r13--12-
---------------
---------------
---------------
---------------

Last Section

--13-12-10--13-12-10--10----------------
-------------------------13-------------
----------------------------12-10-12-10-
----------------------------------------
----------------------------------------
----------------------------------------

-----------------------10--12-13-15---
-------------10-13-10-----------------
----10-12-10--------------------------
-12-----------------------------------
--------------------------------------
--------------------------------------

-12-13-15-12-13-15-15b17-
-------------------------
-------------------------
-------------------------
-------------------------
-------------------------

11 comments:

Luke said...

What effects are you running for this song?

moesj said...

@Luke

For the recording I used a marshall MG100HDFX with no pedals (just OD). However when I play this song live I use a Vox AC15C1 with the hyde side of my jekyll and hyde pedal

Jackson

paulelmar said...

hello could you tab this version it is much easier and funer to do it would be a massive help.....

paulelmar said...

here is the link it should be at 3:20 http://www.youtube.com/watch?v=HwdY2xsd2Tg&feature=related

aninhape_020 said...

you´re left-handed!

nobodyknows said...

So was this done by ear? Is this the tab that planetshakers really use? :)

krishin316 said...

Hey , Awesome Cover! I was wondering, what could i possibly play in place of that solo ?... it is quite epic and I'm not at that level just yet.

moesj said...

Krishin316 - well the solo is based on the Dm pentatonic scale, so I would just jam around with that to make your own solo.

starall said...

Shop Discount Miami Dolphins jerseys, hats, t-shirts. Free shipping on any order. Browse through hundreds of the latest Miami Dolphins arrivals including Texans Nike jerseys.
NBA T-Shirts Cheap

dior anthony said...

All bloggers should read this blog.All bloggers should read this blog.
Wholesale Jerseys

cecillia said...

actual information, all information which is helpful given once for all Simple Home Interior Design | Price And Specification Nissan Juke (NEW), Unique Cars and Luxury 2015 | Falling Flying Aeromobil Cars When Tested Try | Specifications and Price Honda NM4 Vultus