Consuming Fire (solo variation)

By Luan



----------------------------------------------------------
-12-12-12-12-12-11-9-9--5-5-5/7--12-12-12-11-9-9--7-7-7/9-
----------------------------------------------------------
----------------------------------------------------------
-10-10-10-10-10-9--7-7--3-3-3/5--10-10-10-9--7-7--5-5-5/7-
----------------------------------------------------------

-------------------------------------------------------
----------------------15-15-15-15-15------------15-15--
-12-12-12-11-9-9-9-------------------------------------
----------------------12-12-12-12-12--2nd time--12-12--
-10-10-10-9--7-7-7-------------------------------------
-------------------------------------------------------

8 comments:

Renato said...
This comment has been removed by the author.
Renato said...

Hello! I'm from Brazil! I like a lot your blog! I'm making some Christian songs workshops, and I am beginning for Hillsong's songs. You're welcome there: letraemusicadgp.blogspot.com . My twitter is @prenatopb. God bless us all!

Mattio said...

really good job bro. haven't hear it that way before, but I love original additions to songs. lol. almost sounded like you had some pitch issues though, (like your guitar was out of tune), that or the camera audio messed up somewhere (happens to me alot).

J P said...

That's not a United song...it's Tim Hughes...or maybe it's Hughes and United?

mr bang said...

hey what pedals are you using in this solo?

Gaetano said...

sounds good man, great song, got tabs for the rest of the song?

LuancordeiroCh said...

I Use Distortion and Delay!

cecillia said...

thank you, this website has provided very useful knowledge for me and others Toyota Will Use Technology Leading Mazda? | Price And Specifications Honda CBR1000RR SP 2015 | Let Roving Interior Minimalist House Luxury One It | Latest Price and Specifications Kawasaki Ninja H2 and H2R in 2015