Like an Avalanche

Here's Like an Avalanche from United's Aftermath album. All the instructions are in the video below!

By Luke

13 comments:

aLio said...

..by Luke? Looks like it's by the man Timon Klein! =)

HSong4ever said...

can someone explain to me the tuning bcuz i cant really understand him. THANKS.

Renato said...

Hello! I'm from Brazil! I like a lot your blog! I'm making some Christian songs workshops, and I am beginning for Hillsong's songs. You're welcome there: letraemusicadgp.blogspot.com . My twitter is @prenatopb. God bless us all!

pinoysmallbrother said...

this is the MAN! TImon CLien, one of the great guitarist of Hillsong....

Mattio said...

EXPLANATION - when he put strings on the guitar he used a high B and E in place of the D and G but the tuning is still standard. (the replacement strings are tuned the same as the strings that they replace.
Tuning = E A D G B E.
Actual strings used = E A B E B E

Brian said...

Check out my site for a detailed post on how to play this song, recorded in HD. :)

clarityensues.blogspot.com

Santiago said...

He looks like Liam Neeson haha, but tabs would be helpful please! Need them asap! God bless

Travis said...

I made the following tab after watching this and listening to the song. I believe it is correct:

Intro / Verse / Turnaround:


e--------------------------|--------------------------|
B-----0------------0-------|-----0------------0-------|
G-------0---0--------0---0-|-------0---0--------0---0-|
D---4-----4------4-----4---|---4-----4------2-----2---|
A--------------------------|-5------------3-----------|
E-0------------3-----------|--------------------------|




e--------------------------|--------------------------|
B-----0------------0-------|-----0------------0-------|
G-------0---0--------0---0-|-------0---0--------0---0-|
D---4-----4------4-----4---|---4-----4------4-----4---|
A--------------------------|-5------------5-----------|
E-0------------3-----------|--------------------------|

Henry Baldoceda said...

ohhh... mmm...
I think that He used these chords!!!

Capo 6
Em G D C
choru:
C G D C
G D C
G D Em Bm C
Instrumental Bridge:
Em D G
C G D

CAMINO DE VIDA!!! PERU!!!
God bless u...

Benjamin Paine said...

New link for video: http://www.youtube.com/watch?v=vKRyYgWYpGs

Benjamin Paine said...

Hey I made up a tab for it with normal tuning! It's in my Dropbox folder. Hope you enjoy. Feel free to share :)

https://www.dropbox.com/s/xrah1oof160bu6w/Like%20An%20Avalanche%20-%20Hillsong%20United%20TAB%20Db.pdf

Michael Keating said...

The dropbox link doesnt work Ben!

cecillia said...

all of which have been presented by this website was perfect, good appearance and artikelnya..penuh color and full of meaning .. toyota new car price | the latest automotive news | minimalist home design | tips on buying a vehicle