Rise and Sing

By Adam



Use a Tap Delay on quarter note setting, and play twice

E----------
A----------
D----------
G-----9----
B-----9----
e-----7----

B


Intro/Main Riff

e---------------------------

B---------------------------
G---------------------------
D---9-7-9-7-9-----9-7-9-7-9-

A-9-9---------7-7-----------
E---------------------------

---------------------------------
---------------------------------
---------------------------------
-----9-7-9-7-9------9--7-9--11-9-
-6-6------------7-7---7----------

---------------------------------


Whoa/Chorus

E--------------------------------------------
A--------------------------------------------
D--------------------------------------------
G-----9-------13------6------4----2----------
B-----9-------13------6------4----2----------
e-----7-------11------4------2----0----------
B D#m G#m F#m E

Strum these power chords to the rhythm

Intro/Main Riff


e-------------------------------------------------------------------------
B-------------------------------------------------------------------------
G------------------------------------------------------------------------
D-----9-7-9-7---9--------9-7-9-7---9--------9-7-9-7--9-------9---7-9-11-9
A-9-9----------------7-7----------------6-6----------------7-7----7--------
E-------------------------------------------------------------------------

Whoaaaa

E----------
A----------
D----------
G-----9----
B-----9----
e-----7----

B

Chorus (x2)
E------------------------------------------
A------------------------------------------
D------------------------------------------
G-----9-------13------6------4----2--------
B-----9-------13------6------4----2--------
e-----7-------11------4------2----0--------
B D#m G#m F# E

More Whoa's (x2)
E------------------------------------------
A------------------------------------------
D------------------------------------------
G-----9-------13------6------4----2--------
B-----9-------13------6------4----2--------
e-----7-------11------4------2----0--------
B D#m G#m F# E

Or if you want to sound really cool

E---14--11-12-11-12-11------------------
A-----------------------12--12----------
D---------------------------------------
G---------------------------------------
B---------------------------------------
e---------------------------------------

Bridge:

E--------------------------------
A--------------------------------
D--------------------------------
G-----9--------2----4------------
B-----9--------2----4------------
e-----7--------0----2------------
B E F#

E--------------------------------
A--------------------------------
D--------------------------------
G-----9--------4----2------------
B-----9--------4----2------------
e-----7--------2----0------------
B F# E



Second time through
E----------------------------------------
A----------------------------------------
D----------------------------------------
G-----9-------13------6------2----4------
B-----9-------13------6------2----4------
e-----7-------11------4------0----2------
B D#m G#m E F#

E--------------------------------------------
A--------------------------------------------
D--------------------------------------------
G-----9-------13------6------4----2----9-----
B-----9-------13------6------4----2----9-----
e-----7-------11------4------2----0----7-----
B D#m G#m F# E B


Enjoy and remember, all for God's Glory

7 comments:

Mattio said...

good job man!!!

Easy Worship Guitar said...

Awesome site!

http://easyworshipguitar.com

"1 hour to your first song"

Adam said...

Hey, Thanks for the encouraging words guys! For some reason the formatting screwed up, so I hope you guys can still make out what it is from that.

God Bless!
Adam

Bora Louvar said...

hello, thank you for this song, now is one of my favorite =P

(sry, my ingles is not so good XD)
but I guess the intro is not like that, here I leave my
idea of how I think is the intro -> http://boralouvar.blogspot.com/2010/11/rise-and-sing.html

(this is my blog, its portugue but you guys will understand)

God bless you

Adam said...

Hey, Nice Tab! They both work actually. My way makes you stretch your fingers a little bit, but that way you just have to jump strings more.

Brandon Robbins said...

Love your site. I just started a Blogspot. It is a more a beginner worship guitar lesson. I'd like to know how you arranged your blog in that way. Mine is more basic. Maybe we can link togather. Here's the link: http://beginnerworshipguitar.blogspot.com/
Shoot me an e-mail tell me what you think. Guitarforgod1979@yahoo.com

cecillia said...

all of which served to make me salute, this site is full of helpful information and news that, hopefully with the frequently updated to make this website more useful lagi..thx the latest automotive news | the price of motorcycles and cars | Minimalist Home Interior Design | maximum engine power capacity