Forever Reign

Here's Forever Reign by Hillsong. Haven't been posting in a while, but a few more posts to come this week!



Verse
----10--------------
--------13----------
-12---------12------

--------------------
--------------------
--------------------

Pre-chorus
-------------------------------s15-15-15-

-6-6-6-5-5s13-13-13--6-6-6-5-5-----------
-----------------------------------------
-----------------------------------------
-----------------------------------------
-----------------------------------------

Chorus
-12-12-12----------15-15--12-12-12----------17-17-
----------15-15-15-----------------15-15-15-------
--------------------------------------------------
--------------------------------------------------
--------------------------------------------------
--------------------------------------------------

-12-12-12----------15-15--12-12-12----------------
----------15-15-15-----------------15-15-15-12h13-

--------------------------------------------------
--------------------------------------------------
--------------------------------------------------
--------------------------------------------------

8 comments:

Mattio said...

did you make these parts up. i have never heard them in the song. LOVE THEM!!!!

bc1891 said...

these parts are in the Radio Version of the song.
and for this song whoever played lead guitar used a whammy or a pog octave up.

Matt said...

that explains it. i dont usually listen to the radio version.

tee jay said...

uhm~ can you please post more videos in Hillsong's Beautiful exchange.. thank you

Doc said...

Thanks mate. I prefer the radio edit also.

A couple of sections I play differently to make it easier.

Verse is :
-------10--8----
----8----------8

Pre-chorus :
-------------8-8-8-----------15-15-15
---6-6-6-5-5-------6-6-6-5-5---------

Chorus I play about the same as you.

Thanks again

Doc said...

Oh and also the bridge is something like:
-----15-----13------12-----10-
--13-----13------13-----13----

Kyle said...

What pedal(s) did you use for this song?

cecillia said...

Helpful once ya news,
thanks a lot ya pa admin has given this good news. Examples of Simple Minimalist Kitchen Design | Price And Specification Nissan Juke (NEW), Unique Cars and Luxury 2015 | Falling Flying Aeromobil Cars When Tested Try | Specifications and Price Honda NM4 Vultus