Your Love Never Fails

By Matt

Here's Your Love Never Fails by Jesus Culture



Tabs
The intro uses a crunch drive from one electric, and another small part that comes in after one time with the chord progression.

Guitar 1: part 1 intro
e------------------------------------------------------
B------------------------------------------------------
G--3...--------3--5--7--10--3-5-10-5-3-3-5-7-10-12-10--

Part 2
Change to the bridge progression
e-------------------------------------------------
B-------------------------------------------------
G----3--------3-----3--2-----3---------3-----2---
D------3/5------3----------------3/5------3------

Rhythm parts
Intro:
1st part - Gm, Eb, Bb, F
2nd part - Eb, Gm, F

Verse:
Gm, Eb, Bb, F

Chorus:
Eb, Bb, F, Cm

Turn-around/ Bridge:
Eb, Gm, F

12 comments:

Derek Du said...
This comment has been removed by the author.
HSK11 said...

Good job but I remember seeing that the lead and the rhythm guitarist were in third capo.

Mattio said...

your welcome. i didn't use a capo for the sake of simplicity. i wanted to make it usable to anyone without a capo. i use one when i play it live too.

HSK11 said...

I understand. There are some guitarists who don't ever use a capo. Anyways, you did a really good job.

Chad said...

For the intro, it's MUCH easier to play it the way he does live, so you're not having to go all the way up and down the neck, plus it sounds smoother so you can hold the notes.

e|-----------------------------------------------|
B|-----------6---------6-----------------6----8--|
G|-3~~~--5s7----7---5-----5---3~~~--5s7----7-----|
D|-----------------------------------------------|
A|-----------------------------------------------|
E|-----------------------------------------------|


If this tab doesn't come through, here's the tab I made for Ultimate Guitar.

http://tabs.ultimate-guitar.com/j/jesus_culture/your_love_never_fails_tab.htm

mike fox said...

cool, thanks for sharing more stuff to work on! keep it up man

Mattio said...

Chad- yeah i do it like that smoetimes. but when i play through the sound system in youth (which is huge in a 1400 seat sanctuary) it sounds better to have the slides on most of the notes. my amp adds sistortion to the sound that isn't present when i play on wed nights. thanks though. good to have multiple tabs for a song. it gives some variety

Mattio said...

for those who want the rhythm part with a capo the chords are

Intro/verse - Em7, C2, G, D2
Chorus - C2, G, D2, Am
Bridge/turnaround/second part of intro - C2, Em7, D2

Jackson said...

great song, thanks!
What amp do you use?

Mattio said...

my amplifier is a Line 6 spider 15 watt on clean. the amp setting i am using is the L6 boutique on the POD xtlive. i usually play through the sound system at church so i don't see the need to get a better amplifier. lol

Benjamin said...

PIRATE PANTS WIN!!!

Nice job m8.

cecillia said...

actual information, all information which is helpful given once for all Specifications and Price Toyota | She is the Snake Dodge Viper ACR Fastest | Latest Price And Specification | Tips And Ideas Kitchen Design Minimalist