I Will Exalt You

Here's I Will Exalt You by Hillsong, from their Faith+Hope+Love album. Too much table in the video again! I started with the instrumental, before going into the intro riff.




Intro
Guitar 1
----------------------------------------
-2-4--7--9-------2s4-2--2---------------
-----------(x3)-------------4-----------
-2-4--9--9-------2s4-2--2---4-----------
----------------------------------------
----------------------------------------

Guitar 2 - play lightly
------11-------------------9-----------------11----
------------(repeat)-----------(repeat)------------
-11-11----11---------11--11--11--------11-11----11-
---------------------------------------------------
---------------------------------------------------
---------------------------------------------------

Instrumental
-------------------
-7--7--------------
------8--6h8p6-----
----------------6--
-------------------
-------------------

5 comments:

mike fox said...

thanks for the lesson. great tone, btw!

zayrocs said...

I sent you this awhile back... try

----------------------------------------
----------------------------------------
-6-8--11--13-(x3)--6h8p6-6---4-----------
-8-9--13--14-----------------4-----------
----------------------------------------
----------------------------------------


also
-------------------
-7--7--------------
------8--6s8-4-----
-------------------
-------------------
-------------------

Maxy said...

thanks for the video

dior anthony said...

All bloggers should read this blog.All bloggers should read this blog.
Wholesale Jerseys

cecillia said...

actual information, all information which is helpful given once for all Picture collection Modern Minimalist House Plan | Dimensions and Weights | motorsport kawasaki ninja | maximum engine power capacity