Who You Are (Desperation Band)

By Matt

I used the B string exclusively except when i go to the e in the solo. Use lots of delay too




Intro/Verse
e--------------------------------
B-4-5-\10------7-9-\12---- (repeat)
G-------------------------------


Chorus
I came up with the chorus riff on my own:
e-----------------------------------
B-12-10-9-7-5---12-10-9-7-5-4-5----- (repeat)
G-----------------------------------

Solo/Instrumental
e----------0-12-11---------|-----------0-12-11----|
B-9-h12------------7-9----|--9-h12-------------7--|
G-----------------------------|-------------------|

5 comments:

Bruno Baiano said...

Adorei cara muito legal.

Mattio said...

no se` que hablas. no hablo espaniol muy bueno.

Jonas Smile said...

He said in portuguese,
I love it, very cool
He is brazilian. I think

Matt said...

well then that explains why i had no idea what he was saying. lol

cecillia said...

all of which served to make me salute, this site is full of helpful information and news that, hopefully with the frequently updated to make this website more useful lagi..thx Toyota Will Use Technology | Honda CBR1000RR SP 2015 | Picture collection Modern Minimalist House Plan | Kawasaki Ninja H2 and H2R in 2015