God is Able

Here's God is Able by the Planetshakers... camera positioning is a little off but you can still see the fret hand!



Intro/Verse
Guitar 1:
---------------------

-10h12---------------
-------9h11----------
------------9---11---
---------------------
---------------------

Guitar 2:
---------------------------------------
---------------------------------------
---------------------------------------
-----4-------4-------4--------4--------
-2-2---2------------------0-0---0------
---------3-3---3-0-0---0---------------

Pre-chorus
G A G A

Chorus
----------------------
------10--------------
-9h11----11-9-9-7-7-7-
----------------------
----------------------
----------------------

----------------------
------10--------------
-9h11----11-9-9-6-6-6-
----------------------
----------------------
----------------------

9 comments:

ricardo said...
This comment has been removed by the author.
mike fox said...

thanks for the work you put into this site. very cool stuff.

Aaron said...

Hey Kenny

I think the chords for the chorus are Bm G D A
could you tell me if I'm right??

thanks

Dean said...

Hey Kenny

For aaron, the sheet music we run with photocopy from the shakers music book says G D Bm A repeated 3 times then Em7 G leading into the chorus

cheers

Aaron said...

hey kenny

For Dean,thanks alot but are those the chorus chords chords or the verse because you said leading into the chorus?? and does anyone have the chords for the bridge I can't figure them out

sprite said...

It is an interesting and rich article, Thanks.
noleggio memory card p2

Legato said...

GOD IS ABLE - PLANETSHAKERS
KEY: D MAJOR
VERSE:D - Bm–A - Bm
Prech: D - A
Ch: Bm - D - Bm-A
Bridge: A - Bm - G - A x3 D - A

Aaron said...

for legato,

Thanks alot man!

cecillia said...

Thank's have shared the info,, success always for the info and the website,,, and be the best to the next information,, tips on buying a vehicle | toyota new car price | maximum engine power capacity | Minimalist Kitchen Design Simple And Beautiful