Devoted to You

Here's a short instrumental by Planetshakers... its not note-for-note accurate but its almost there!



-14b16-14b16-r14-14-12--11h12-9-
--------------------------------
--------------------------------
--------------------------------
--------------------------------
--------------------------------

------9----------------------
-12p9----12p9----------------
---------------11--9---------
-----------------------------
-----------------------------
-----------------------------

-12--11-11h12-11-9-----11----
-------------------12--------
-----------------------------
-----------------------------
-----------------------------
-----------------------------

-11h12p11-9------------------
-------------12p9----------9-
------------------11--9-11---
-----------------------------
-----------------------------
-----------------------------

-----------------------------------------
-10-9-10-9-------------12----------------
-----------11-9--11b13----11b13r11--9----
--------------------------------------11-
-----------------------------------------
-----------------------------------------

-----------------------------------------
-----------9h10--10-9-9h10-9-------------
-----9h11--------------------11-9--------
-11--------------------------------------
-----------------------------------------
-----------------------------------------

-11-12----------
--------12s14---
----------------
----------------
----------------
----------------

7 comments:

yeanwern said...

This is good (: i actually have something that soundslike the original. but i just don't know how to record D:

hennyman said...

Great learning site. Thanks for all the lessons you have provided. Your teachings have taken our worship team to a new level by acurately teaching the correctly lead licks. Could you look at doing
Lincoln Brewsters new song " Reaching For You"
Thanks
hennyman

Guitar Center said...

Hellow!

I love your site, It is a pleasure to visit.

I have added your site to my site.

Please link my site to your site.

Thank you!

http://guitar-center0.blogspot.com/

mike fox said...

great blog!

sisong said...

http://sisongs.blogspot.com/

rama said...

guitar miniature in exclusive model same as original,miniature guitar Elvis Presley, John Lenon, Bass Fla RHCP,Drum miniature The Beatle, Gibson SG AC/DC, Billy Joe Guitar miniature,
all guitaris around the world, please visit
http://www.miniaturesupplier.com

cecillia said...

Thank's have shared the info,, success always for the info and the website,,, and be the best to the next information,, Kitchen Design | Unique Cars and Luxury 2015 | Falling Flying Aeromobil | Honda NM4 Vultus