Stand up and give him the praise

By Omar

Here's the solo for the song "Stand up and give him the praise" by Paul Wilbur.

Solo Starts at 3:03
Ends at 3:40




Guitar Solo:

E|--15p12----12~----12----------------------------
B|--------15------15---13h15--15B^(16)r-15B^(16)r-
G|------------------------------------------------
D|------------------------------------------------
A|------------------------------------------------
E|------------------------------------------------

*Don't hit this last bend, instead Hold it, release and pull off
------------------|
15B(16)r15p13-----|
--------------14--|
------------------|
------------------|
------------------|

E|----------------------------------------------------
B|-----------------------------------12^B(13)r--------
G|------------------12~-14-14p12-14------------14-----
D|-------10~-12s/14-----------------------------------
A|-10s/12---------------------------------------------
E|----------------------------------------------------

E|-------12-13-15-12^B(13)r12-----------------------
B|--s/15----------------------15-12-13-15--12h13p12-
G|--------------------------------------------------
D|--------------------------------------------------
A|--------------------------------------------------
E|--------------------------------------------------

-------------------------------------------
-------------------------------------------
14-12----14h12----------------- ------------
------14-------14-12----14h12--------------
---------------------15-------15-14h15-----
---------------------------------------17--

E|--------------------------------------------
B|--------------------------------------------
G|----------------------------------14-16-17--
D|-------------------------14-15-17-----------
A|-14h15----------14-15-17--------------------
E|-------17-15-17-----------------------------

[3plets]
---------------------------[17]h19-19^B(20)-
-------------------------[17]---------------
-16-14----14-16-17s/19-[17]-----------------
------17------------------------------------
--------------------------------------------
--------------------------------------------

19^B(20)r19p17-----------------|
--------------20-20^fB(22)~----|
-------------------------------|
-------------------------------|
-------------------------------|
-------------------------------|

..and give him the praise..(Made this lick, inspired by Paul Gilbert ;D)
E|-15h12-----------------------------------------------
B|------15-13---15h13----------------------------------
G|------------14-----14-12----14h12--------------------
D|-------------------------14-------14-12s\10---10h12s/
A|--------------------------------------------12-------
E|-----------------------------------------------------

-----------------------|
-------13~-15h13-------|
--12h14----------14~---|
14---------------------|
-----------------------|
-----------------------|

Saxophone Solo:

E|---------------------------------------------------
B|----13----13-13~-----13-13----13-13----13-13----13-
G|-14----14--------14--------14-------14-------14----
D|---------------------------------------------------
A|---------------------------------------------------
E|---------------------------------------------------

---------------------------------------------------
15----------13~-15^fB(17)r-------------------------
---14-12-14----------------14-12-14-14-12----------
------------------------------------------12s/14---
------------------------------------------------15-
---------------------------------------------------

-----------------------------------------|
-------------------------13----13-13-----|
----------------12-12s/14--14~-------14--|
------10--12s/14-------------------------|
15s\12-----------------------------------|
-----------------------------------------|<>
Trumpet Solo:

E|-------------19-17~--------17---
B|--------15h18------18-17-18--17-
G|------16------------------------
D|-15h18--------------------------
A|--------------------------------
E|--------------------------------

---------17-19-20-22/23^B(24)~r/--|
17-18-20--------------------------|
----------------------------------|
----------------------------------|
----------------------------------|
----------------------------------|

Guitar :
Praise the Lord !!
E|----------------------|
B|----------------------|
G|--14-x-12--14~s/------|
D|-----x----------------|
A|--12-x-10--12~s/------|
E|----------------------|

4 comments:

WesLeROY34 said...

Awesome Awesome Awesome!

Omar said...

Here are some updates guys:

Here's a tiny changed in the tabs I want to correct which was a mistake I didn't see until now :D

First is the second bar on the saxophone solo:

----------------------------------------------------------------------
15-----------13~-15^fB(17)r-------------------------------------
---14-12-14------------------14-12-14-12-12-14--------------
-------------------------------------------------------12s/14-----
----------------------------------------------------------------15--
---------------------------------------------------------------------

just changed that one note in between from 14 to 12, so now your picking that same note twice instead of 14 twice :D

Now for the important part,if you guys haven't already noticed, the second minor mistakes in my playing is that one part that involves the bending at the 8th bar just before the Paul Gilbert lick I made at the guitar solo section.

I just missed one note just before the bend, but its pretty easy to add (I really haven't played this solo in a while. Sorry guys, but I'm making up for it now ! )

19^B(20)r19p17------------------------|
--------------------20-17-20^fB(22)~--|
--------------------------------------------|
--------------------------------------------|
--------------------------------------------|
--------------------------------------------|

That E note or 17 located at the B string, is the one note I missed in the video, but it'll match up with the solo if you listen with song! now go ahead and give it a go!, you'll know what I mean.

The good news now is that the tab is pretty accurate NOW in terms of how I want it to sound similarly to the song..

Well that's about it, enjoy this awesome solo guys :D!

And please don't be shy to type down comments on questions, I'll get back to you guys as soon as I can if you have any problem with the solo! I'm pretty busy with my ministry as well :D

Bless God!

- Omar

J.A.M Moore said...

great job... good quality video... AWESOME WORSHIP SONG!!!

cecillia said...

Nice info given, may be a blessing and benefit us all Toyota Will Use Technology Leading Mazda? | Price And Specifications Honda CBR1000RR SP 2015 | Best Modern Minimalist House Pictures Latest 2015 | Latest Price and Specifications Kawasaki Ninja H2 and H2R in 2015