Show Me Heaven

Kenny: here's a song by ICF Zurich Simon, the contributor, attends. Feel free to drop a vid if you've an original song from your church to share too!

By Simon

Here’s a song called 'Show Me Heaven’ by ICF Zurich (that’s the church I’m going to in Switzerland :D). It is from their newest album called 'All The World’: http://www.icf-media.ch/magento/default/icf-music/alltheworld.html



Intro

--5---------7---------9-9-9-7-9-----------
--5-(8x)----5-(4x)----5-5-5-5-5-----------
------------------------------------------
------------------------------------------
------------------------------------------
------------------------------------------

Verse
Repeat the whole thing twice

------------------------------------------
------------------------------------------
--7-7-7-7-x-x-7----x-x-6---x-x-6-6--------
--7-7-7-7-x-x-7----x-x-7---x-x-7-7-------- 3x
------------------------------------------
------------------------------------------

------------------------------------------
------------------------------------------
------------------------------------------
------------------------------------------
------------------------------------------
--2-(7x)-0---0-0-0-4b0—2b0----------------


Pre-Chorus

------------------------------------------
------------------------------------------
--4--------6--------11-------13-13-14-14--
------------------------------------------
--2-(16x)--4-(16x)--9—(12x)--11-11-12-12--
------------------------------------------

Followed by a D chord


Chorus
Just strum these chords

A E D 2x
Bm A(sus2)
F#m E D
Bridge
Strumming part

A D F#m E D

Solo
I made a mistake here, just follow the tabs!

----------16-(3x)---------16-(8x)---------
--17-(8x)---------14-(5x)---------14-(3x)-
------------------------------------------
------------------------------------------
------------------------------------------
------------------------------------------

-----------16-(3x)---------17-------------
--17-(13x)---------14-(5x)-17-(16x)-------
------------------------------------------
------------------------------------------
------------------------------------------
------------------------------------------

--12-(8x)-12----------
----------12b14-(8x)--
----------------------
----------------------
----------------------
----------------------

6 comments:

Soesje said...

ICF zurich? Is it the same ICF we have here in The Netherlands? Located in Rotterdam?

Simon said...

I don't think so. There is one in Leiden, but it's still in the Team Building Phase. ICF means International Christian Fellowship. www.icf.ch is the homepage of the lead church in Zurich!

Patrick S said...

hey.. bisch viellicht dä simon wo im youthplanet spielt??

Simon said...

Hi Patrick

First of all, for those who do not speak swiss german, he asked if I was Simon who plays in the youth service of ICF.

My answer: I used to play in Youthplanet, not in Zurich but in ICF Mittelland. (formerly Zofingen)

MRTBouhuys said...

@soesje
ICF Leiden is van start gegaan en we hebben nu sinds januari weekelijkse celebrations. check de site en kom eens langs! :D
www.icf-leiden.com
greetz Martijn
ICF Leiden Music

cecillia said...

actual information, all information which is helpful given once for all toyota new car price | the price of motorcycles and cars | Minimalist Kitchen Design Simple And Beautiful | the latest engine specification