No Compromise

By Cody



* - Palm Mutes

Intro
---------------------------------------------
---------------------------------------------
---------------------------------------------
-0--6--5--3--0---/7-7-7----------------------
-0--6--5--3--0---/5-5-5----------------------
-0--6--5--3--0------------------------------- x4

Verse
---------------------------------------------
---------------------------------------------
--7---7-------------5---5-5------------------
--7---7-8---8-5---5-5---5-5------------------
--5---5-8---8-5---5-3---3-3------------------
--—-----8---8-5---5-------------------------- x2

Pre-chorus
---------------------------------------------
---------------------------------------------
----------------------7-7--------------------
-00---0-00---0-00---0-7-7--------------------
-00---0-00---0-00---0-5-5--------------------
-00---0-00---0-00---0------------------------ x2
** * ** * ** *

Chorus
---------------------------------------------
---------------------------------------------
-------------5-5-----------------------------
-0--7--8--5--5-5---0--7--8--5--3-3-----------
-0--7--8--5--3-3---0--7--8--5--3-3-----------
-0--7--8--5--------0--7--8--5--3-3-----------

---------------------------------------------
---------------------------------------------
-------------5-5-33333333--------------------
-0--7--8--5--5-5-33333333--------------------
-0--7--8--5--3-3-11111111--------------------
-0--7--8--5---------------5-3-5-6-5-0-3-0----


Bridge
---------------------------------------------
---------------------------------------------
---------------------------------------------
---------------------------------------------
----------------/5-5-------------------------
-0--6--5--3--0------------------------------- x3
* * * * *

---------------------------------------------
---------------------------------------------
---------------------------------------------
----------------0--3--5--6-------------------
----------------0--3--5--6-------------------
-0--6--5--3--0--0--3--5--6-------------------
* * * * * * * * *

2 comments:

ridwanfansuri said...

nice song, so rock

(http://muhammadr06.student.ipb.ac.id)

Kingdom 51 said...

any one what kind of synth effect used for the intro?