Our God

Here's Our God by Chris Tomlin

By Jeremy



Intro
E|--------------------------------
B|-12 12 12 12 12 12 12 12-\\ 9 9-
G|--------------------------------
D|--------------------------------
A|--------------------------------
E|--------------------------------

E|---------------------------------
B|-9 9 9 9 9 9 / 16 16 16 16 16 16-
G|---------------------------------
D|---------------------------------
A|---------------------------------
E|---------------------------------

E|----------------------------------
B|-16 16-\\-14-14-14-14-14-14-14-14-
G|----------------------------------
D|----------------------------------
A|----------------------------------
E|----------------------------------

E|----------------------------------
B|-12-12-12-12-12-12-12-12----------
G|----------------------------------
D|----------------------------------
A|----------------------------------
E|----------------------------------

E|------------------------------------
B|-17-17-17-17-17-17-17-17------------
G|------------------------------------
D|------------------------------------
A|------------------------------------
E|------------------------------------

E|----------------------------------------------------
B|-16-16-16-16-16-16-16-16-\\-14-14-14-14-14-14-14-14-
G|----------------------------------------------------
D|-------------------------------------
---------------
A|-------------------------------------
---------------
E|-------------------------------------
---------------


Verse
E|---------------------------------
B|-4--4---5---5---4---4---4---4---4
G|---4--4---4---4---4---4---4---4--
D|---------------------------------
A|---------------------------------
E|---------------------------------

-------------------------------|
---4---5---5---4---4---4---4---|
-4---4---4---4---4---4---4---4-|
-------------------------------|
-------------------------------|
-------------------------------|

E|----------------------------------2---2---2---2---2-
B|-2---2---2---2---2---2---2---2----------------------
G|---4---4---4---4---4---4---4---4----4---4---4---4---
D|----------------------------------------------------
A|----------------------------------------------------
E|----------------------------------------------------


Chorus
E|-------------------------2-2-2-2----------
B|-4-4-4-4-5-5-5-5-4-4-4-4------------------
G|--4-4-4-4-4-4-4-4-4-4-4-4-4-4-4-4----(X2)-
D|------------------------------------------
A|------------------------------------------
E|------------------------------------------


Bridge
E|-------------------------
B|-12-12-12-12-12-12-12-12-
G|-------------------------
D|-------------------------
A|-------------------------
E|-------------------------

E|------------------------------------
B|--17-17-17-17-17-17-17-17-16-16-16--
G|------------------------------------
D|------------------------------------
A|------------------------------------
E|------------------------------------

E|---------------------------------------------
B|-16-16-16-16-16-14-14-14-14-14-14-14-14------
G|---------------------------------------------
D|----------------------------------------(X4)-
A|---------------------------------------------
E|---------------------------------------------


Pre Chorus and Chorus
E|----------------------------------------
B|----------------------------------------
G|---------------------4444444------------
D|---6666666--2222222--4444444--4444444---
A|---6666666--2222222--2222222--4444444---
E|---4444444--0000000-----------2222222---
(&2&3&4& on the pre-chorus... see video)

6 comments:

Albert said...

Nice! A tip to help things out here is to use a capo on the 4th fret so you can play the open "4" on the strings. =) Have fun!

Jay said...

How do you get your telecaster to sound so full with the distortion. My telecasters notes get drowned out if i put that much distortion

Jeremy said...

Jay...If you are referring to the bridge section, then I just take my clean tone and add a little overdrive to it by pushing the drive or gain. I also leave in the delay to give it a fuller sound. If you are referring to the chorus section, then it is just full on distortion! I like to set my bass to about 10-11 o'clock, my mids at about 3-4 o'clock, and my hi's at about 4-5 o'clock. I hope that helps.

Hannah said...

This is Hannah Bevills, Editor for Christian.com which is a social network made specifically for Christians, by Christians, to directly fulfill Christian's needs. We embarked on this endeavor to offer the ENTIRE christian community an outlet to join together as one (no matter denomination) and better spread the good word of Christianity. Christian.com has many great features aside from the obvious like christian TV, prayer request or even find a church/receive advice. We have emailed you because we have interest in collaborating with you and your blog to help us spread the good word. I look forward to an email regarding the matter, Thanks!

God Bless
|Hannah Bevills|Christian.com|
hannah.bevills@gmail.com

Jeff V said...

What dely are you using here, and what intensity and repeats?
Thanks!

Pauleta161 said...

this is GREAT man!!!
God bless you!