With Everything ('Droff Knows Best)

[Kenny: if you recall, there were some attempts to tab Nigel's instructional vids (on the Hillsong youtube channel).. here's another one, on With Everything]

By Robert Figueroa

This is the tabs for the tutotials from youtube from nigel hendroff.. this song is in the key of B.




Intro:
B F# G#m E
-------------------------------------------------|
-------------2---2---4--4---4--4----4--4----7--7-|
----8--8----3---3---4--4---4--4----4--4----9--9--|
---9--9----4-------6------6-------6-------9------|
--9--------------------------------------7-------|
-7--------2-------4------4-------4---------------|

same thing but B is played 3 times (play as many times needed)


B F#
e-----------------------------------------------|
b---------------------------------------2---2---|
G------8--8------8--8------8--8--------3---3----|
D-----9--9------9--9------9--9--------4---------|
A----9---------9---------9----------------------|
E---7---------7---------7------------2----------|



G#m E
e-----------------------------------------------|
b------4--4------4--4------4--4---------7--7----|
G-----4--4------4--4------4--4---------9--9-----|
D----6---------6---------6------------9---------|
A------------------------------------7----------|
E---4---------4---------4-----------------------|


Intro riff:

play relatively fast 1\16th maybe

e----7---6--7-----11--12--11-|


pre chorus riff:

e------------------------|6|<-optional-|
b---12-11-9-7-9-5-2-4-4\7--------------|


e--------------------|2|<-optional-|
b---12-11-9-7-9-5-2-4--------------|

11 comments:

dark said...

cool i get to see my name in the website
thanks i hope this is helpful for others

NATHAN/SA said...

HAHA ME 2!

Steve said...

come check out this blues lesson! I promise you'll enjoy it!! http://www.goodkarmaguitarlessons.com/?ref=ZNhe4DUZcKN7ts4M

Dostoevsky said...

During the chorus strumming, he does this weird "C like" chord starting from the second fret. Can I also have the tabs for that chord?
Thanks in advance!

Jeremy said...

It's an F#/C#: X44322.

So the chorus progression is
B F#/C# G#m Esus4

rockerverb08 said...

What pedals are you switching back and forth from during the big parts of the song?

David said...

a question? I wonder what effect used in that song??

nlanglais1 said...

wow1 beautiful guitar, what is it?

Matthew said...

@Dostoevsky & Jeremy:

The chord is an F#add11 (or add4 if you like).

244302 low-to-high - Hendroff sometimes uses his thumb to play the low F#, and sometimes doesn't play it at all, so it comes out as an F#add11 / C#:

x44302

Mark said...

David,
The sound reminds me of the Voodoo Lab Sparkle Drive. It's a staple for a lot of electrics in worship. Mix that with his Nova Delay and the P90 for his sound.

nlanglais1,
It is a Duesenberg Starplayer TV. If you're looking for that style of sound, maybe check out the Seymour Duncan P-Rails. Versatile pickups that have the P90 option. I installed a combo into my backup strat and have gotten compliments nonstop since.

Brice said...

It is a Voodoo Lab Sparkle Drive.
There are two kinds of delay there, a bigish one for the lead stuff, with maybe a bit of reverb from his amp. Then a second one that is used during the chorus, it helps to sustain the chords and fill a bit better.
The Duesenberg Starplayerm is a very expensive guitar, I use an Epiphone Emperor Swingster, and there just as good. It comes with push pull pots in so you can switch between single coil and humbucker pickups. Really cool