No Reason To Hide

By Timothy Bulaon aKa sasuke_kun12

Whoa. Hello guitarpraise community! It's been a while. Miss me much? Here's the tab for No Reason To Hide. Remember that this song has a 12/8 feel (please correct me if I'm wrong) thanks to the drumming pattern. I just split 1 beat into 1 triplet so I get that DA DA DA feel.

As for delay, I used quarter. It sounded good to me

What was used?
Signal -> Tuner -> EHX Muff OD -> Rocktron Tsunami Chorus -> Digitech Digidelay

If you split the song into parts and watch the video, you'll nail it in no time.




Intro, in-betweens, bridge and outro
(remember DA-DA-DA)
|-----------------------------------------
|--13-14-16---14-13-------13-14-16--18-14-
|-----------------------------------------
|-----------------------------------------
|-----------------------------------------
|-----------------------------------------

Verse 1 (You can have "creative freedom" with this.)
|--------------
|--13-----14---
|--------------
|--------------
|--------------
|--------------

Chorus
|----------------------
|--11-11-13-11---------
|-------------------13-
|----------------------
|----------------------
|----------------------

Chorus Ending (a finger twister)
|--------------------------------------------
|--14-13-11------11-13-14-13-11--------------
|---------------13------------------------12-
|--------------------------------------------
|--------------------------------------------
|--------------------------------------------

Verse 2 (what I'm playing)
|----------
|--13--14--
|----------
|--10--11--
|----------
|----------

That's basically it. It repeats itself so just listen to the song and watch the vid!

2 comments:

FS0801 said...

Hey thanks for the tab :D

And i think the song is in 4/4 just that it's played with a triplet feel (counted 1-trip-let, 2-trip-let, 3-trip-let, 4-trip-let) making it 3 notes per metronome click >.<

But anyway, I want to thank you guys for the effort in making these tabs, learning these songs have been so much easier since now I don't have to figure it out by ear which takes ages for me hahas.

Mas aly said...

Discover How To Become A Better Singer .
FREE Singing Tips Video http://clickmeterlink.com/SingingTipsVideo