More Than Life (I Heart version)

By Gene



-------------------------------------------------------
----8-7b8r7----------8------------8-7b8r7------8----7--
--------------------------------------------5s7--5s7---
-10---------9b10r9----9---9b10r9-----------------------
-------------------------------------------------------
-------------------------------------------------------

---------------------------------------------------------
----8-7b8r7----------8------8-7-7h8h9-------------7s13---
------------9-7----------------------------8---7---------
-10-------------10-9--9--10------------5s7-5s7-----------
---------------------------------------------------------
---------------------------------------------------------

e|-------15--15(x2)------14---14(x2)------15----------
B|-13(x2)--13------13(x2)--13-------13(x2)------------
G|----------------------------------------------------

e|-------15--15(x2)------14---14(x2)------15---------

B|-12(x2)--12------12(x2)--12-------12(x2)-----------
G|---------------------------------------------------

-----------------------------------------------12-17s19-

12-15r12-10-10s12-12-s8-8-s10-10-s7-7-7h8s12-15---------
--------------------------------------------------------
I forget what i played here exactly...


-19b20r19-17--15-------------|--------------|----------
-------------------15-13-12--|---12b13-(x4)-|----------
-----------------------------|-14-----------|-14-12-11-

5 comments:

dark said...

is that tape on the guitar?

Paul said...

I was just about to learn this song and now it'll be so much easier, thanks! Think you can tab out the sliding part? it's hard to make out what's going on there

GuitarAzn101 said...

haha dark, it is tape. i had some major problems with some chips of polywrethane coming off so tape is necessary. and paul, what sliding part exactly?

Paul said...

The part from 1:07-1:12 in your video

Steve said...

come check out this blues lesson! I promise you'll enjoy it!! http://www.goodkarmaguitarlessons.com/?ref=ZNhe4DUZcKN7ts4M