Glory is Rising

Here's Glory is Rising by Starfield... nothing too difficult here



Intro
--------------------------------------
-15-14-7---10-10-12-------------------
--------------------------------------
--------------------------------------
--------------------------------------
--------------------------------------


Verse
A short fill
-----9--------------

-12-------10--------
--------------9-----
--------------------

--------------------
--------------------

Rhythm
---------------------------------------------
---------------------------------------------
-----2---2---2---1-2--------2---2------2---2-
-4-4---4-------4--------2-2---2----2-2---2---
---------------------------------------------
---------------------------------------------

Pre-chorus
D F#m E E

Chorus
A D F#m E

3 comments:

Gaetano said...

at 108 you start doing some really powerful dynamic stuff. Like some inversions or different voicing. This seems to be a very common thing to do in building up and adding rocking dynamics to worship music. I love it. What is it called? Inversions? It looks a lot like different triads an octave up. What is the theory behind this technique? Do you know of any ways to explain how to implement it in our own playing, say from lead sheets in a free worship/not not for note type of church?

Nova X said...

You do some pretty sick stuff there dude!

I ran across a site from Yamaha, tat happened to have artists with, the same skills as yourself! You should check out their page sometime as it gets update very frequently with new artist info.

http://www.facebook.com/YamahaGuitars?ref=ts#!/YamahaGuitars?v=wall&ref=ts

wsxwhx718 said...

IS VERY GOOD..............................