You Hold it All

By John Rock



Intro

-----------------------------------------------------
-----------------------------------------------------
-----------------------------------------------------
---6---6---6---6---6---6---6---6---6---4---4---4---4-
-7---7---7---7---7---7---7---7---7---6---6---6---6---
-----------------------------------------------------

------------------------------------------------------
------------------------------------------------------
------------------------------------------------------
---7---7---7---7--------6---6---6---6---6---6---6---6-
-7---7---7---7---(x2)-7---7---7---7---7---7---7---7---
------------------------------------------------------


Verse 1
------------------------------------------------------
------------------------------------------------------
------------------------------------------------------
---6---6---6---6--------4---4---4---4---4---4---4---4-
-7---7---7---7---(x2)-6---6---6---6---6---6---6---6---
------------------------------------------------------

------------------------------------------------------
------------------------------------------------------
------------------------------------------------------
---7---7---7---7--------6---6---6---6---6---6---6---6-
-7---7---7---7---(x2)-7---7---7---7---7---7---7---7---
------------------------------------------------------


Chorus 1

---------------------------------
---------------------------------
---------------------------------
---7---7---7---7---6---6---6---6-
-7---7---7---7---7---7---7---7---
---------------------------------

--------------------------------

--------------------------------
--------------------------------
--2---2---2---2---4---4---4---4-
4---4---4---4---6---6---6---6---
--------------------------------

-----------------------------------------------------
-----------------------------------------------------
-----------------------------------------------------
---7---7---7---7---6---6---6---6---4---4---4---4---4-
-7---7---7---7---7---7---7---7---6---6---6---6--(x2)-
-----------------------------------------------------

----12----12-14----16----
-------------------------
-13----13---------------- x2
-------------------------
-------------------------
-------------------------

----12----12-14----16----
-12----12----------------
------------------------- x2
-------------------------
-------------------------
-------------------------

----12----12-14----16----
-------------------------
-14----14---------------- x2
-------------------------
-------------------------
-------------------------

----12----12-14----16----
-------------------------
-13----13---------------- x2
-------------------------
-------------------------
-------------------------


Verse 2

Palm Mute
E B A E
-7------2-----5-----7-----
-9------4-----5-----9-----
-9-(x?)-4-(?)-6-(?)-9-(?)- x2
-9------4-----7-----9-----
-7------2-----7-----7-----
--------------5-----------


Chorus

---------------------/7~-------/7~--/11~-
-/9~--/5~--/9~--/7~-------/9~------------
-----------------------------------------
-----------------------------------------
-----------------------------------------
-----------------------------------------

------------------------------
-9-7-9-9-7-9-7-5-7-7-5-7-12-9-
------------------------------
------------------------------
------------------------------
------------------------------

-----------------------------
12-12-9-12-16-16-16-16-16-16-
-----------------------------
-----------------------------
-----------------------------
-----------------------------


------------------------------
-9-7-9-9-7-9-7-5-7-7-5-7-12-9-
------------------------------
------------------------------
------------------------------
------------------------------

--------------------------------
12-12-9-12-16-16-16-16-16-16-17-
--------------------------------
--------------------------------
--------------------------------
--------------------------------

5 comments:

Marty said...

I think this is the wrong title

jrbilodeau said...

Yeah, its supposed to be You Hold it All.

wayne said...

nice song

dark said...

does anyone go im the forum anymore?

i really need help tabbing this
can anyone help me

http://www.youtube.com/watch?v=mWBGL5n4ArQ&feature=related

i know its close but i can tab this i tried several times thank you
email me if you can do this for me
rft360@yahoo.com

ricardo said...

wow! my dream guitar.. Ibanez,,
sana mag karoon ako ng ganyan,, ^_^