Showstopper

Hey folks, I know I've not been posting much recently, but I've been really, really busy (getting married!). Anyway, here's a song from Toby Mac's really nice Tonight album, pretty good stuff! I'm also using the webcam on a new laptop, but the frame rate is really bad. Will try to get that fixed next time round!




Intro
This portion also appears in the verse
--------------------------

--------------------------
-----4----4p2--^-2--------
-------------------2-^-2--
-2-2---2------------------
--------------------------
^ = mute

This part appears in the chorus as well
-10----10-------------------10----10----7p5h7------
-13b15-13b15-10-10-10-10-12-13b15-13b15-------5s3--
---------------------------------------------------
---------------------------------------------------
---------------------------------------------------
---------------------------------------------------


Verse
----------------------------
----------------------------
----------------------------
----------------------------
-0h2-0h2--0h2-0h5-----1-2---
------------------2-5-------

--------------------------------------
--------------------------------------
--------------------------------------
-------------2p0-2p0-----2p0-2p0------
-0h2-0h2---2---------2-----------2----
--------------------------------------

9 comments:

HSK11 said...

nice man...this is a nice song..i'll take a listen

hey congrats man with you getting married

may God bless you and your wife

guitar_pic said...

congrats on you getting married!!!

jonathan ho said...

comgrats! =DD

Mike Foster said...

Congrats fella. Not heard of Toby Mac, will look into it more, like it :)

ethan said...

hey hey, have been visting this site regularly and it has been a great help :) congrats to you and your wife , hope you have many children XD (btw what church are you from?)

J.A.M Moore said...

HAHAH God bless... hope you have a good marriage...

Ryan said...

congratulations Kenny!!

Romka said...

congrats dude!

MrNoName said...

congratulations kenny for getting married, God bless you and your family!!