Healer

By Jeremy



Intro (chords B, E2, G#m, E2, B)\
E|-----------------------------7----------------------|
B|--7v-------7h9-----\\4v---4/5-----------------------|
G|----------------------------------------------------|
D|-------------------------------------(X2)-----------|
A|----------------------------------------------------|
E|----------------------------------------------------|


Verse
Random pattern inside the chord frame with delay effect

B
E2, F#, B
B, F#/A#, G#m
E2, F#

use these variations for verse
B E2 F# F#/A# G#m
E|-----9-------7--------9-------6-------4---------|
B|----12-------7-------11-------7-------4---------|
G|----11-------9-------11-------6-------4---------|
D|-----9-------9-------11-------8-------6---------|
A|-------------7--------9-------9-------6---------|
E|------------------------------6-------4---------|

Pre Chorus
Arpeggios inside the chord frame with delay effect

C#m, B/D#, E2
C#m, E2, F#

use these variations for pre chorus
C#m B/D# E2 F#
E|----4------5------7-----9---------|
B|----5------5------7----11---------|
G|----6------6------9----11---------|
D|----6------7------9----11---------|
A|----4-------------7-----9---------|
E|----------------------------------|


Chorus (1st time)
Random pattern inside the chord frame with delay effect

B, F#/A#
G#m, F#m, E2
B, F#/A#
G#m, F#, E2, F#
G#m, F#/A#, B

use the variations above for 1st chorus

Chorus (2nd time)
All downstrokes using three string power chords with distortion

B5, F#/A#
G#5, F#5 E5, F#5, G#5, F#/A#
B5, F#/A#
G#5, F#5, E5, F#5
G#5, F#/A#, E5, F#5, G#5, F#/A#

use these variations for 2nd chorus
B5 F#/A# G#5 F#5 E5

E|-------------------------------------|

B|-------------------------------------|
G|----4--------------------------------|
D|----4-----8------6----4-----2--------|
A|----2-----9------6----4-----2--------|
E|----------6------4----2-----0--------|

Bridge
Arpeggios inside chord frame with distortion (out first time through, lightly on second, all out last time)

G#m, F#/A#, B
G#m, F#/A#, B
G#m, F#/A#, B
E5, G#m, F#/A#

end on B
use this B in the bridge..it is a little easier to transition into and out of

B
E|----7------|
B|----7------|
G|----8------|
D|----9------|
A|----9------|
E|----7------|


Tablature Notation

h - hammer on
/ - slide up
\ - slide down
v - vibrato (or ~)

3 comments:

Michael Paul said...

Wow this is an awesome blog you guys got here... I'm kind of doing the same thing come check me out when you get a chance...

PedalBoss said...

I am glad I came across this blog. Great post here, great song - great video - great tabs! Thanks!

Dan Leedham said...

Anyone got a PodXt/X3 sound patch for this?