Rise and Sing

By Jeremy



Intro/Verse
E-----------------------------------------------------
B-----------------------------------------------------
G----4----4--2--4-----4-----4--2--4-----4-----4--2--4-
D------------------2-----2-----------1-----1----------
A-2-----2---------------------------------------------
E-----------------------------------------------------

E------------------------------
B------------------------------
G------4----2--4--4/6\4--------
D---2-----2--------------------
A------------------------------
E------------------------------

Pre Chorus (whoa whoa's)
E-14--11--12--11h12p11-----------------
B----------------------12--------------
G--------------------------------------
D-------------------------------(x2)---
A--------------------------------------
E--------------------------------------

Chorus
E---------------------------------------
B---------------------------------------
G----4-4-4-4-8-8-8-8--------------------
D----4-4-4-4-8-8-8-8-6-6-6-6-4-4-2-2----
A----2-2-2-2-6-6-6-6-6-6-6-6-4-4-2-2----
E--------------------4-4-4-4-2-2-0-0----
B D# G#m F# E
E-------------------------------------
B-------------------------------------
G----4-4-4-4-8-8-8-8------------------
D----4-4-4-4-8-8-8-8-6-6-6-6-4--------
A----2-2-2-2-6-6-6-6-6-6-6-6-4--------
E--------------------4-4-4-4-2--------

Bridge (I just pick inside the chord frame with a random pattern using echo)
E-------------------------------
B----12--11-9-12----------------
G----11--11-9-11---------(x2)---
D-----9--------9----------------
A-------------------------------
E-------------------------------
B F# E B (these are the hits after hallelujah)


E---------------------------------------------
B----12----12-----11----11-9-12---------------
G----11----13-----11----11-9-11------(x2)-----
D-----9----13-----11----------9---------------
A---------------------------------------------
E---------------------------------------------
B G#m F# F# E B

4 comments:

Chad said...

Nice... I personally prefer to play it up on the 7th fret starting on the E string... also double up on the root notes instead of just playing it once... Still, overall very nice. I'd kinda like to see the bridge played out b/c I'm not really seeing how that fits. I only tried it once so it could be just me not hearing it...

Mark said...

Hi, I tried to listen to the song but I think my computer must be in desperate need of upgrades! Thank you anyways. I will see what I can do about it. I'm almost sure it was because of the viagra online banner I opened last week.

330 Jr High said...

great stuff. i use this tab all the time. thanks a ton. you're a life saver. anyway you can post the tabs for Send Me Out by Fee?

self-operation said...

thank you sir.. such a blessing!