God of Wonders (Kutless)

Here's a really nice version of a classic by Kutless.. its quite a challenge to pick cos of the string skipping in the verse!



Verse
Capo at the third fret
--------0------------------0----------
----10----10---10------10----10----11-
--10--10----10-------10--10-----10----
--------------------------------------
-8-----------------10-----------------
--------------------------------------

------------0-----------------------
------11------11----11--------------
---10----10------10----(x2)---------
-8----------------------------------
------------------------------------
------------------------------------

Chorus
Gm Eb Bb F
Gm Eb Bb Cm (I played F instead of Cm in the vid, my bad!)
Gm Eb Bb F

-------------------13-13-13-13-13-13-13-13-13-13-
-10-10-10-11-11-11-------------------------------
-------------------------------------------------
-------------------------------------------------
-------------------------------------------------
-------------------------------------------------

--------------------------------------------------
-10-10-10-11-11-11-13-gradually bend to 15--------
--------------------------------------------------
--------------------------------------------------
--------------------------------------------------
--------------------------------------------------

4 comments:

dennissc93 said...

what effects do you use for this song??? :D

Travis said...

When I play it... I use abit of reverb, delay of course! usually... just a slight od... like a tube od. You could also use a chorus effect as well.

Bram C. Asuncion said...

pls tab TAKEN BY LOVE too...
great song ..

drew said...

Kenny - love the fret markings on this guitar - what kind of guitar is it?