Redeemer (Kutless)

Here's Redeemer by Kutless, a modern take on "There is a Redeemer".



Verse
Mute the notes, the higher notes less so than the lower ones
------------------------------------------
------------------------------------------
-----4---4-4---4-----------5---5-5---5----
-5-5---5-----5----(x2)-5-5---5-----5------
------------------------------------------
------------------------------------------

--------------------------------------------------
--------------------------------------------------
-----4---4-4---4------2---2-2---2-----0---0-0---0-
-5-5---5-----5----4-4---4-----4---2-2---2-----2---
--------------------------------------------------
--------------------------------------------------

------------------------------------------
----------------------3---3-3---3---------
-----4---4-4---4--------------------------
-5-5---5-----5----5-5---5-----5-----------
------------------------------------------
------------------------------------------

------------------------------------------

------------------------------------------
-----4---4-4---4-----------5---5-5---5----
-5-5---5-----5----(x2)-5-5---5-----5------
------------------------------------------
------------------------------------------

------------------------------------------

------------------------------------------
-----4---4-4---4-----------5---5-5---5----
-5-5---5-----5---------5-5---5-----5------
------------------------------------------
------------------------------------------

I messed up this part in the video, but its roughly like this:
------------------------------------------
-----3---3-3---3------3-----3-----3-------
------------------------4-----4-----------
-5-5---5-----5------5-----5-----5---------
------------------------------------------
------------------------------------------


Chorus
(I kept playing the Am early!)
G G C G
C D G D
G G Am Em
C D G G

Alternative voicings
-------------------
-8---8--7--10--8---
-7---5--7--9---7---
-5---5-----7-------
--------5------7---
-------------------
G C D Am Em

Ending
Play around with these three notes for the 1st, 2nd, and 4th lines
-----------------------
--5--4---8---12--------
-----------------------
-----------------------
-----------------------
-----------------------

3rd line:
------------------------
-5---7---8---12---------
------------------------
------------------------
------------------------
------------------------

4 comments:

bamesbotter said...

Good tab. I do think that for the Ending part, "4th lines", the 4 on the b should be a 3.

Joe said...

Great job. Thanks, I really appreciate all the work you do, sharing your talent.

TheMinSuh said...

hey can you do remember me by kutless from the same album?

Jeff said...

Finally a tab that is accurate. Great job and thank you !