Dance Now

By Jerome



Intro:
--------------------------
--------------------------
--------------------------
--------------------------
--2---5---0---7-----------
--2---5---0---7-----------
rpt each notes several times

Verse: funky riff using just 2 notes
--------------------
--------------------
--------------------
--7---then-----9----
--------------------
--------------------


Chorus:
Like the intro, but strum instead
--------------------------
--------------------------
--------------------------
--------------------------
--2---5---0---7-----------
--2---5---0---7-----------

Followed by:
--------------------------
--------------------------
---5----7-----------------
---5----7-----end with----
---3----5--------------2--
-----------------------2---

Bridge: light distortion
--------------------------
--------------------------
--------------------------
--------------------------
--2-2--5-7-9--2-2--5-7-0--
--2-2--5-7-9--2-2--5-7-0--

--------------------------
--------------------------
-----------------------9b13-
--------------------------
--2-2--5-7-9--2-2-2-2-----
--2-2--5-7-9--2-2-2-2-----

palm muting
--------------------------
--------------------------
--------------------------
--------------------------
--2-2--5-7-9--2-2--5-7-0--
--2-2--5-7-9--2-2--5-7-0--

--------------------------
--------------------------
--------------------------
--------------------------
--2-2--5-7-9--2-2-2-2-----
--2-2--5-7-9--2-2-2-2-----

then strum

Little bit of staccato
--------------------------
--------------------------
--------------------------
--------------------------
--2-2--5-7-9--2-2--5-7-0--
--2-2--5-7-9--2-2--5-7-0--

--------------------------
--------------------------
--------------------------
--------------------------
--2-2--5-7-9--2-2-2-2-----
--2-2--5-7-9--2-2-2-2-----

No more staccaco
--------------------------
--------------------------
--------------------------
--------------------------
--2-2--5-7-9--2-2--5-7-0--
--2-2--5-7-9--2-2--5-7-0--

--------------------------
--------------------------
--------------------------
--------------------------
--2-2--5-7-9--2-2-2-2---2-
--2-2--5-7-9--2-2-2-2---2-

Pause a little bit then:

-------------
-------------
-------------
-------------
---0-2-------
---0-2-------

Followed by: (01:50)
--------------------------
--------------------------
---5------------------7---
---5-(4x)--then strum-7---
---3------------------5---
--------------------------

Then the same riff of the chorus...

5 comments:

paula said...

wat guitar do you have?

Guitar_man32@yahoo.it said...

AH... IT's a Ibanez pre-lewsuit 1975 made in japan les paul copy. One of the first lespy copies.


-Jerome

kayne said...

hey man. can you do the othere songs of this album.
cheers

joshua 1;9 said...

awesome.. is d 6th string tuned d chord??

ricardo said...

what is the settings for G1Xnext pedal of this song?