One Way (Hillsong + Michael W Smith)

Here's the bridge part of the song, from a concert Hillsong did with Michael W Smith.



-----------------------------------------
-----------------------------------------
------------------6---6---6---6---6------
-4---4---4---4------7---7---7---7---7----
---5---5---5---5-------------------------
-----------------------------------------

-----------------------------------------
-----------8---8-------------------------
-----7-----7---7-------4-----4---4-------
-7s9---9-9---9-----5-5---5-5---5---------
-----------------------------------------
-----------------------------------------

Then strum the Bm and A power chords, followed by G:

-3--2--3--2----
-3--3--3--3----
-0--0--0--0----
-0--0--0--0----
-X--X--X--X----
-3--3--3--3----

For the 2nd half, just strum:
D A Bm G (use the tabs above for G)
Bm A G

1 comment:

Mike Foster said...

Great Post Man