How He Loves

Kenny: here's How He Loves by Jared Anderson.. I've also included the original song in the 2nd video for reference (Isaiah's playing the portion at 1:00 and 2:40).

By Isaiah May





Main riff
[----------------------]
[----------------------]

[--5~~4~~--------------] 2X

[-------------2~~------]
[----------------------]
[----------------------]


Last time
[---------------------]
[---------------------]
[--5~~4~~--------5s7--]
[--------------2s5----]
[---------------------]
[---------------------]

3 comments:

lespaulplayerdoctor said...

Hey, good job on the notes.... just play them on the same string and slide to them. Listen the the second vid for reference on it. It sounds more "fuller" this way!

kthomas said...

Nice, I've always found this version of the song boring, Though still a powerful song. Try listening to Kim Walkers version, in my opinion its the best cover out there. I need help on what type on delay or effect they use on the solo part before the chorus. Right now I use a Multi-Tap Delay from my POD with a bit of reverb and a swell at the beginning. Any suggestions?

sam lee period 5 said...
This comment has been removed by the author.