Your Love is Better Than Life

Here's another song by Fee. Lots of heavy percussive stuff in the verse, but I think I'm not playing it the same way as the cd... Also, i tuned the song up half a step; tune your guitar down half a step to play with the cd.



Intro
With dotted 8th note delay
--0--0--0--0--0--0--0--0--0--0--0-0-0-0-0-0---------
-10-10-10-10-10s14-14-14-12-12-12s9-9-9-9-9---------
----------------------------------------------------
----------------------------------------------------
----------------------------------------------------
----------------------------------------------------

--0--0--0--0--0--0--0--0--0--0--0--0--0--0--0--0----
-16-16-16-16-16-16-16-16-17-17-17-16-16-16-12-12----
----------------------------------------------------
----------------------------------------------------
----------------------------------------------------


--0--0--0--0--0--0--0--0--0--0--0-0-0-0-0-0--0------
-10-10-10-10-10s14-14-14-12-12-12s9-9-9-9-9--7-(x16)
----------------------------------------------------
----------------------------------------------------
----------------------------------------------------
----------------------------------------------------

Verse
Dotted 8th note delay. ^ = play a muted note
----------------------------------
----------------------------------
----------------------------------
-^-4-6-^-4-6-^-4-6^-4-6-^-4-6-^---
----------------------------------
----------------------------------

Pre-Chorus
-0---0---9----------------
-0---7---9---12p11--------
-2---8---9---------11----- A B
-2---9---9------------11--
-0------------------------
--------------------------

Chorus
A E B C#m G#m A E B

Bridge
----4------4---------------------------
--------------------4-------5--4-------
-s6----2s4--------4---------------4----
---------------4--------4s6------------
---------------------------------------
---------------------------------------

4 comments:

chris said...

what do you use to tune the song up a half step?? that would be quite handy since i don't keep an Eb guitar sitting around...

kenny said...

Audacity.. if you want to save it in wav/mp3.. or Karafun if you just want to jam with the song..

chris said...

Thanks!

Andrew H. said...

I was wondering if you had any tips on playing the verse riff. I tried playing it with the muted notes like the tabs say with the dotted 8th delay (dd-5, mode 9 w/ footswitch tap tempo) but it doesn't sound nearly as smooth or good as the song or your playing. Any ideas?