We Crown You

By Simon
Here’s 'We Crown You’ by Fee. Great band, great song.



Intro/Instrumental

With digital delay (I tapped it in, using a Line 6 DL-4)
-------8-------8-------8---------------8--
-----9---9---9---9---9---9---8--11--11----
--10-------8-------8-------8-------------- 2x
------------------------------------------
------------------------------------------
------------------------------------------

Instrumental (Rhythm Guitar)
Strum these chords (These are the intro chords as well)
C# G# D#
--------------
--9---9---11--
--6---8---9---
--6---6---9---
--------------
--------------

Chorus
C# G# D#
C# G# D#
C# G# D# Fm
C# D# G#

4 comments:

no said...

nice strat!!

jonathan ho said...

i see a road worn!! =))
great tone too =)

Simon said...

it's not a road worn actually ;)
it's only a squier with fender pickups (changed them) which i aged on my own ;) but thanks anyway^^

Ben Starks said...

Thanks for another great tab!

One correction...

The D# should be 8,8,11 as you play in the video.

Cheers!