Hero

Not exactly a worship song, but considering that most of the worship songs are already tabbed here, I thought to venture abit. My guitar was slightly out of tune, as my trem floats abit, and the song uses dropped D tuning. I pitched the song up by half a step by the way, so if you want to play with the cd you will need to tune your guitar down half a step, including the dropped D (it becomes C#).



Verse
Dropped-D tuning.
-----------------------------
-----------------------------
-----------------------------
-----------------------------
---2---3-2-------------------
-2---2--------4-4-5-5-7-4-5--

-----------------------------
-----------------------------
-----------------------------
-----------------------------
---2---3-2--------------5-----
-2---2--------4-4-5-5-7---7--

Pre-Chorus
A C
------------------------------
------------------------------
------------------------------
------------------------------
---------3--2-----------3--2--
-2-2--2---------22---2--------

For 22, play the note rapidly with mutes.

Chorus
Em G D:
------------------
------------------
------------------
--2----5----0-----
--2----5----0-----
--2----5----0-----

Followed by Em C D

Lead part: play each note twice
-----14-15-14------17-15--14----
-17------------15---------------
--------------------------------
--------------------------------
--------------------------------
--------------------------------


For the intro, you can play the same notes, one octave down.
--------------------
---7-8-7----10-8-7--
-9--------7---------
--------------------
--------------------
--------------------

6 comments:

J.A.M Moore said...

yes I was hoping you would do some skilet!!! The voices sound funny...
hahah...

I was wondering what program you used to change the pitch of the song???

timothy said...

-.-^^nice one..like it

sarahlee880 said...

You can't please everyone. When you're too focused on living up to other people's standards, you aren't spending enough time raising your own. Some people may Whisper, complain and judge. But for the most part, it's all in your head. People care less about your actions than you think. Why? They have their own problems! See the link below for more info.

#whisper
www.inspgift.com

Barbie Chiu said...

It is always easy to forgive someone or somebody but so hard to forget the things he/she has done to you. But that is just part of our journey as a person and as a human being. Please do visit my site indicated below. Thank you and have a good day.

triciajoy.com

www.triciajoy.com

Cindy Dy said...

I love surfing and blogging. Thanks for your blogs, I have now another idea what to do on my own blogs. Keep it up. I'll come back later to read more post from you. Thank you.

Bubble
www.gofastek.com

sarah lee said...

Love it! Very interesting topics, I hope the incoming comments and suggestion are equally positive. Thank you for sharing this information that is actually helpful.


ufgop.org
ufgop.org