Glory to God

Here's another one by Fee, not too difficult! The chorus sounds alot like The Stand by Hillsong as well.



Chorus
---------------------------------------------
-16----(x4)-14----(x2)-16----(x2)------------
----16---------16---------16-----------------
---------------------------------------------
---------------------------------------------
---------------------------------------------

-----------------------14--------------------
-16----(x4)-14----(x2)-------16--------------
----16---------16---------16----16-----------
---------------------------------------------
---------------------------------------------
---------------------------------------------

Interlude/Intro
----------------------------------------------
----7-------s11----11-12------7---------12-11-
-s9---9-8-------11----11---s9---9-8-s11----11-
----------------------------------------------
----------------------------------------------
----------------------------------------------

3 comments:

Teeb Yaaj said...

question.. what Key is it In?? i cant find it.. lol i am trying like almost all i know.. ={

Greg said...

Hi - Great post. This song is great & I love you tone on your guitar.

This tab is slightly wrong. For the chorus part, when you play the 14th on the B string you should Play the 15th on the G string not the 16th

I.E.

E ----------------------------------
B -16----(x4)-14----(x2)-16----(x2)-
G ----16---------15---------16------
D ----------------------------------
A ----------------------------------
E ----------------------------------

-----------------------14-----------
-16----(x4)-14----(x2)-------16-----
----16---------15---------16----16--
------------------------------------
------------------------------------
------------------------------------

Also the riff is played with double stops, so, it looks like

E ----------------6-6-6-7-7-7-7-7---
B 7-7-7-7-7-7-7-7-7-7-7-7-7-7-7-7---
G 9-9-9-8-8-8-8-8-------------------
D ----------------------------------
A ----------------------------------
E ----------------------------------

E ------------7---6-6-6-6-6-7-6-7-7-
B 7-7-7-7-7-7---7-7-7-7-7-7-7-7-7-7-
G 8-9-9-8-8-8---8-------------------
D ----------------------------------
A ----------------------------------
E ----------------------------------

Greg said...

It hasn't posted the tab as I typed it. Move the 6-6-6-7-7-7-7-7 along to the 7 without an 8 under it for the first half of the riff.

The the 2nd part, after the 3rd 7/8 double stop play just the 7 on the E then one more 7/8 double stop and as above move the 6's and 7's to the first 7 on the B without an 8 under it.

Sorry for the confusion.