You Hold Me Now

By Neil

Hi guys here's another song by Hillsong. This version is from the Hope+Faith+Love Album . Recently Nigel posted his amp settings in Hillsong Creative website and thought that I'll try it out and also update my patch based on his latest amp setup to approximate his tone. Check it out at the end of the video where I demoed the tones. God Bless!



Nigels Setup:
---------------
Matchless Spitfire (I used 1993 matchless D-30 in X3L)
Vox AC 15 (I used vox 1960 Class A-15 in X3L)

Delay 1: .8th note
Delay 2: quarter note

if anyone wants my patch its been uploaded at www.customtone.com search for the tone "Droff Spit+Droff Vox15" authored by Neil Rey G.


You Hold me now (Chords, tabs are at the bottom)

INTRO:
D G Bm G

VERSE 1:
D
On that day...
G D
All that...
Bm
When I...
F#m A
There...
D
All my...
G D
In the...
Bm
Where Your...
F#m A
And forever...

PRE CHORUS 1:
Em
Where the...
D/F#
In Your...
G
Let the...

CHORUS:
D G Bm
No weeping...
G
No suffering...
D G Bm
No darkness...
G
No hiding...

INSTR.
G / | / / | A / | / / | Bm / | / / |
D/F# / | / / | G / | / / | A / | / / |

BRIDGE:
D
For...
A
All my...
Em G
All the...

Tabs

Intro:
----------------------------------12-------------------
-----7-5-7--(4x)--s-12-10-12-(3x)----------------------
-----7-7-7--------s-12-12-12---------------------------
-------------------------------------------------------
-------------------------------------------------------
-------------------------------------------------------


Verse:

D G D
On that day...
-------------------------------------------------------
--------7-repeat as needed-8----7----------------------
--------7------------------7----7----------------------
-------------------------------------------------------
-------------------------------------------------------
-------------------------------------------------------

Bm
When I see you face to face
-------------------------------------------------------
-------7-----------------------------------------------
-------7-----------------------------------------------
-------9-----------------------------------------------
-------------------------------------------------------
-------------------------------------------------------

F#m A
There surrounded
--------9----------------------------------------------
--------10--------------11-----------------------------
--------11--------------9------------------------------
-------------------------------------------------------
-------------------------------------------------------
-------------------------------------------------------


Pre Chorus:

Em
Where the streets...
-------------------------------------------------------
-------------8-----------------------------------------
-------------9-----------------------------------------
-------------9-----------------------------------------
-------------------------------------------------------
-------------------------------------------------------

D/F# G
In Your presence... Let songs...
-------------------------------------------------------
---------7------------------8--------------------------
---------7------------------7--------------------------
---------4------------------5--------------------------
-------------------------------------------------------
-------------------------------------------------------

D
No weeping...
-------------------------------------------------------
--7----------------------------------------------------
--7----------------------------------------------------
--7----------------------------------------------------
-------------------------------------------------------
-------------------------------------------------------


Instrumental:
Not very acurate... the mix is too heavy. I'm making excuses but hey as long as it's in tune and according tho the proper scale. Just improvise... LOL!


---10--------9-----7--------9--10-9--------------------
-------------------------------------------------------
---7---------6-----4--------6--7--6--------------------
-------------------------------------------------------
-------------------------------------------------------
-------------------------------------------------------


---10-12-10-12----9-5-s-7------------------------------
-------------------------------------------------------
---7--9--7--9-----6-2-s-4------------------------------
-------------------------------------------------------
-------------------------------------------------------
-------------------------------------------------------


---9-9-9-9-s-10-s-9--7--5------------------------------
-------------------------------------------------------
---6-6-6-6-s-7--s-6--4--2------------------------------
-------------------------------------------------------
-------------------------------------------------------
-------------------------------------------------------


---s-7-9-10--12-s14-B-15-------------------------------
-------------------------------------------------------
-------------------------------------------------------
-------------------------------------------------------
-------------------------------------------------------
-------------------------------------------------------


Bridge:

D A
For eternity... All my heart...
-10----------------------------------------------------
-10---------------------1------------------------------
-7----------------------9------------------------------
-7----------------------7------------------------------
-------------------------------------------------------
-------------------------------------------------------

Em G
All the glory... Name
-------------------------------------------------------
--8-------------------------8--------------------------
--9-------------------------7--------------------------
--9-------------------------5--------------------------
-------------------------------------------------------
-------------------------------------------------------

14 comments:

Brent, the one and only, unless your name is Brent said...

what model of guitar you got there? why do the pickups look invisible?

kenny said...

its a line 6 variax..

Neil Rey Gallano said...

Hehehe... I always get those questions. Even at church. People would look at me with perplexed faces. LOL

purge0809 said...

haha... really?

first time i saw the variax i also wondered why there were no pick-ups... i was thinking it was some kind of practice guitar... =)

Jam said...

hey nice job do you have the quarter note delay delaying the .8th???

Neil Rey Gallano said...

Hi I'm not sure I get your question. But the delays are set on two separate rigs (if you will, since its a virtual amp rig setup). quarter note delay on Amp1 and .8th note delay on Amp2. GBU!

dark said...

please can someone help me i don't know how to strum octaves meaning the solo how do you skip the middle string? please help

oh here my email if you want to help me thanks darkrft@gmail.com

NB said...

Hi Neil! first of all congratulations.. AWESOME tone!! My name's Nick from Argentina and I have a question. Do you use amp at church? Cause I'm interested on the X3 but some people told me it's not the best option to play alive with amp. What's about the m13? what's the diference with x3?
THANKS!!

NB said...

ahhh! another =) Could you describe this tone... 2 amps and 2 delays (dotted eight and quarter) but the same mix, feedback? distor/over level?/ boost? other?

God bless YOU!!!

Zach said...

They actually capo 5 on the album.

OurLoudLove said...

Can you tab out/show us the instrumental/solo in this video? http://www.youtube.com/watch?v=qt8Al6Z7Huo It's much easier to hear as well. Thanks!

Exequiel said...

hey, I have an RP500 from Digitech, and I can add just one delay, but i dont know how to make that dotted eight and quarter because i can just set the tempo

Antonio said...

Thank you a lot.God will bless you abundantly.

Rob said...

Best tutorial I found on this:
http://www.youtube.com/watch?v=OYsAQ5S3myw&feature=related