We the Redeemed

Here's We the Redeemed by Hillsong. The 1st half of the song isn't tabbed, but mainly uses clean, plucked, open chords. Might have a go at that portion another time.



Verse
-----5-----5------------5-------5-------5---
---5---7-----5--------5---7-8-----7---5---7-
-7-------7-----(x2)-6---------7-----7-------
--------------------------------------------
--------------------------------------------
--------------------------------------------

Pre-Chorus
--------------------------------------------
-----5-------5---7-10-8-7-2-3--------5------
---7-------7-----------------------7--------
-5-------7-----------------------5----------
--------------------------------------------
--------------------------------------------

then strum A to lead into the chorus.


Chorus

D D G A
Bm Bm G A
Em Em Bm Bm
G G G G

Instrumental
--------------------------------------------------
-s10-10-7-10--------------------------------------
-------------9-9-7-7-(x2)-9b11r9-9-9-9p7-9p7-9b11-
--------------------------------------------------
--------------------------------------------------
--------------------------------------------------

Play each note a few times:
-15--14--9--10----15--14--17---
-------------------------------
-12--11--6--7-----12--11--14---
-------------------------------
-------------------------------
-------------------------------

Download the video

9 comments:

The Jay said...

Haha Finally! I've been struggling on learning the lead parts! Thanks! Godbless!

tagskie said...

hi.. just dropping by here... have a nice day! http://kantahanan.blogspot.com/

Emmanuel said...

Kenny! Thanks alot haha.

yi-en said...

hey kenny! wonderful tab!

but one question, for the 2nd part of the instrumental, i noticed the video and the tab aren't the same. in the video, you never play past the 11th fret, but instead jump up the strings. is there a significant difference in jumping up the strings instead of playing it like in the tab?

dy said...

thanks alot mate, u really r awesome.

just two notes i think you forgot to write(but you played in the video)

it's at the end of the verse
-----5-----5------------5-------5-------5------5
---5---7-----5--------5---7-8-----7---5---7--7
-7-------7-----(x2)-6---------7-----7-------
--------------------------------------------
--------------------------------------------
--------------------------------------------

God bless bro!learning it with the youth today:P
PS: i'm from Mauritius!u're all around the world!Awesome!

Wayne said...

Hey kenny! thanks for posting this!

what kind of Amp/Cab combo are you using on your PodX3? I have a PodXT live and I'm trying to get a similar tone as you.

Thanks!!

dark said...

@yi-en hey man the second part he does it different you are right its even easier (i guess) its

15-14---------15-14-17-
------14-15------------
12-11---------12-11-14-
------11-12------------

hope this helps

Kevin said...

Hey I know this might be hard to answer but:

What pickup were you playing from; it's kinda hard to see it from my screen ?

wah yudi said...

thanks for interesting post... i really enjoy to visit this site :)
obat batu ginjal tradisional