We will see Him

By Neil



CHORDS (tabs below)
Intro:
GDC


Verse 1:
G (D) (C) (GDC)

G (D) (C) (GDC)

G (D) (C) (GDC)

G (D) (C) (GDC)


Pre-Chorus:
Am G C

Am Em D


Chorus:
C

G D C

C

Em D

Am-G-C Am-Em-D


Verse 2:
G (D) (C) (GDC)

G (D) (C) (GDC)


Pre Chorus:
Am G C

Am Em D


Intrumental:
AmCEmD
AmCEmD

Bridge:
C G D Em

C Em D

C G D Em

C Em D


TABS:

Intro:
Use 2 delays, a dotted 8th & 8th note
--------------------------------------------------
----8----7----5-----------------------------------
--------------------------------------------------
--------------------------------------------------
--------------------------------------------------
--------------------------------------------------

Verse:
Use volume pedal for the swells
--------------------------------------------------
----8swell>---7swell>-8swell>---------------------
----7swell>---------------------------------------
----5swell>---------------------------------------
--------------------------------------------------
--------------------------------------------------

Pre Chorus:

Great is our God....
------8----7-----10-------------------------------
---10---7h8--8s10---------------------------------
--------------------------------------------------
--------------------------------------------------
--------------------------------------------------
--------------------------------------------------

and we will see Him...
---------10---------------------------------------
---10-12------------------------------------------
--------------------------------------------------
--------------------------------------------------
--------------------------------------------------
--------------------------------------------------

In holiness....
--------8----------------10-----------------------
-----10-----8---------10--------------------------
---9------------9---7-----------------------------
--------------9-----------------------------------
--------------------------------------------------
--------------------------------------------------


Verse 2:
--------------------------------------------------
-------10----------13-12--------------------------
----12----12----12-------12-----------------------
-------------12-----------------------------------
--------------------------------------------------
--------------------------------------------------


Instrumental:
-------------12s14-----------12s15----------------
---s12-10-12-------s12-10-12----------------------
--------------------------------------------------
--------------------------------------------------
--------------------------------------------------
--------------------------------------------------

---15-15-14-14------------------------------------
---------------13-13-12h13-12---------------------
------------------------------13---11vibrato------
--------------------------------------------------
--------------------------------------------------
--------------------------------------------------


-------------12s14-----------12s15----------------
---s12-10-12-------s12-10-12----------------------
--------------------------------------------------
--------------------------------------------------
--------------------------------------------------
--------------------------------------------------

fast picking
---15-15-14-14------------------------------------
---------------13-13-12h13-12---------------------
------------------------------13---11vibrato-s12--
--------------------------------------------------
--------------------------------------------------
--------------------------------------------------

Bridge: (High)
--------------------------------------------------
----8----8----10----12----------------------------
----5----7----7-----9-----------------------------
----5----5----7-----9-----------------------------
--------------------------------------------------
--------------------------------------------------

--------------------------------------------------
----8----12---10----------------------------------
----5----9----7-----------------------------------
----5----9----7-----------------------------------
--------------------------------------------------
--------------------------------------------------

5 comments:

Neil Rey Gallano said...

Hey Bro Kenny, Sent you an email. The instrumental portion of the tab has been cut short. That was my bad... I attached the incomplete file. :P

Sorry for the inconvenience guys.

God Bless

Josh said...

i'd like to request something: if it is possible to include the name of the ablum and artist along with the title that is already mentioned. b/c me and along with some others prob wud not know...thnx much...

Brent, the one and only, unless your name is Brent said...

For you swells with a pedal is your volume pedal set in the chain pre or post to the delay?

I still can't figure out how to do swells all that well. Are you still using the dual delay's the the differing note signatures for that part of the song, or differing effects?

Neil Rey Gallano said...

Volume pedal is set to Pre-Delay but post-amp. The dual delays are turned on. This way your volume pedal won't cut off the natural decay of the delay and will give you a smoother swell. Just practice attacking the strings first and followed by the volume pedal from 0% to 80%-100% a hair of a second later. Depends on you. Just listen to swell and you'll get used to the feel of doing a smooth one.

I'm not very good either compared to Kenny. I just do my best. Eventually you'll get better.

God Bless!

Ganjar Nugraha said...

great play dude.. love your play.. can you give more advance guitar lesson?